ISO-10303-21;
HEADER;
FILE_DESCRIPTION (( 'STEP AP203' ),
    '1' );
FILE_NAME ('958206.step',
    '2021-10-08T08:13:25',
    ( '' ),
    ( '' ),
    'SwSTEP 2.0',
    'SolidWorks 2019',
    '' );
FILE_SCHEMA (( 'CONFIG_CONTROL_DESIGN' ));
ENDSEC;

DATA;
#1 = ORIENTED_EDGE ( 'NONE', *, *, #138, .F. ) ;
#2 = PRODUCT_DEFINITION ( 'UNKNOWN', '', #104, #14 ) ;
#3 = UNCERTAINTY_MEASURE_WITH_UNIT (LENGTH_MEASURE( 1.000000000000000082E-05 ), #214, 'distance_accuracy_value', 'NONE');
#4 = FACE_OUTER_BOUND ( 'NONE', #48, .T. ) ;
#5 = CIRCLE ( 'NONE', #162, 0.5500000000000000444 ) ;
#6 = CARTESIAN_POINT ( 'NONE',  ( 0.0000000000000000000, 0.0000000000000000000, 0.0000000000000000000 ) ) ;
#7 = EDGE_LOOP ( 'NONE', ( #163 ) ) ;
#8 = CARTESIAN_POINT ( 'NONE',  ( 1.047444401652940007E-13, 4.124339402320052999E-33, 30.00000000000000000 ) ) ;
#9 = CC_DESIGN_PERSON_AND_ORGANIZATION_ASSIGNMENT ( #172, #38, ( #104 ) ) ;
#10 = AXIS2_PLACEMENT_3D ( 'NONE', #78, #198, #79 ) ;
#11 = COORDINATED_UNIVERSAL_TIME_OFFSET ( 1, 0, .AHEAD. ) ;
#12 = CARTESIAN_POINT ( 'NONE',  ( 1.047444401652940007E-13, 0.5499999999999963807, 30.00000000000000000 ) ) ;
#13 = DIRECTION ( 'NONE',  ( 0.0000000000000000000, 0.0000000000000000000, 1.000000000000000000 ) ) ;
#14 = DESIGN_CONTEXT ( 'detailed design', #45, 'design' ) ;
#15 = VERTEX_POINT ( 'NONE', #151 ) ;
#16 = PERSON_AND_ORGANIZATION ( #43, #139 ) ;
#17 = ADVANCED_FACE ( 'NONE', ( #209 ), #69, .T. ) ;
#18 = SHAPE_DEFINITION_REPRESENTATION ( #185, #177 ) ;
#19 = PERSON_AND_ORGANIZATION ( #43, #139 ) ;
#20 = PERSON_AND_ORGANIZATION ( #43, #139 ) ;
#21 = AXIS2_PLACEMENT_3D ( 'NONE', #74, #161, #181 ) ;
#22 = ORIENTED_EDGE ( 'NONE', *, *, #190, .F. ) ;
#23 = EDGE_CURVE ( 'NONE', #100, #100, #5, .T. ) ;
#24 = APPROVAL ( #222, 'UNSPECIFIED' ) ;
#25 = DIRECTION ( 'NONE',  ( -3.491481338843133355E-15, 1.224646799147353207E-16, -1.000000000000000000 ) ) ;
#26 = DIRECTION ( 'NONE',  ( 3.491481338843133355E-15, -1.224646799147353207E-16, 1.000000000000000000 ) ) ;
#27 = AXIS2_PLACEMENT_3D ( 'NONE', #94, #26, #75 ) ;
#28 = FACE_OUTER_BOUND ( 'NONE', #193, .T. ) ;
#29 = DIRECTION ( 'NONE',  ( -3.491481338843133355E-15, 1.224646799147353207E-16, -1.000000000000000000 ) ) ;
#30 = APPLICATION_PROTOCOL_DEFINITION ( 'international standard', 'config_control_design', 1994, #45 ) ;
#31 = LOCAL_TIME ( 10, 13, 25.00000000000000000, #88 ) ;
#32 = CARTESIAN_POINT ( 'NONE',  ( 0.0000000000000000000, 0.0000000000000000000, 0.0000000000000000000 ) ) ;
#33 = APPLICATION_CONTEXT ( 'configuration controlled 3d designs of mechanical parts and assemblies' ) ;
#34 = ADVANCED_FACE ( 'NONE', ( #197, #4 ), #146, .T. ) ;
#35 = ORIENTED_EDGE ( 'NONE', *, *, #182, .F. ) ;
#36 = APPROVAL_ROLE ( '' ) ;
#37 = LOCAL_TIME ( 10, 13, 25.00000000000000000, #174 ) ;
#38 = PERSON_AND_ORGANIZATION_ROLE ( 'creator' ) ;
#39 = DATE_AND_TIME ( #192, #37 ) ;
#40 = ADVANCED_FACE ( 'NONE', ( #147, #28 ), #201, .T. ) ;
#41 = DIRECTION ( 'NONE',  ( 4.275831445896958607E-31, 1.000000000000000000, 1.224646799147353207E-16 ) ) ;
#42 = DIRECTION ( 'NONE',  ( -4.275831445896958607E-31, -1.000000000000000000, -1.224646799147353207E-16 ) ) ;
#43 = PERSON ( 'UNSPECIFIED', 'UNSPECIFIED', 'UNSPECIFIED', ('UNSPECIFIED'), ('UNSPECIFIED'), ('UNSPECIFIED') ) ;
#44 = EDGE_LOOP ( 'NONE', ( #124 ) ) ;
#45 = APPLICATION_CONTEXT ( 'configuration controlled 3d designs of mechanical parts and assemblies' ) ;
#46 = DIRECTION ( 'NONE',  ( 5.623153122298509901E-31, 1.000000000000000000, 1.582776894139425644E-16 ) ) ;
#47 = CLOSED_SHELL ( 'NONE', ( #53, #40, #220, #86, #154 ) ) ;
#48 = EDGE_LOOP ( 'NONE', ( #123 ) ) ;
#49 = CYLINDRICAL_SURFACE ( 'NONE', #90, 0.7499999999999988898 ) ;
#50 = CARTESIAN_POINT ( 'NONE',  ( 3.949767349475915021E-14, 0.7499999999999963363, 11.31258330249197286 ) ) ;
#51 = APPROVAL ( #98, 'UNSPECIFIED' ) ;
#52 = CIRCLE ( 'NONE', #83, 0.7499999999999977796 ) ;
#53 = ADVANCED_FACE ( 'NONE', ( #112 ), #164, .F. ) ;
#54 =( GEOMETRIC_REPRESENTATION_CONTEXT ( 3 ) GLOBAL_UNCERTAINTY_ASSIGNED_CONTEXT ( ( #3 ) ) GLOBAL_UNIT_ASSIGNED_CONTEXT ( ( #214, #67, #203 ) ) REPRESENTATION_CONTEXT ( 'NONE', 'WORKASPACE' ) );
#55 = DATE_AND_TIME ( #81, #125 ) ;
#56 = PERSON_AND_ORGANIZATION ( #43, #139 ) ;
#57 = CIRCLE ( 'NONE', #155, 0.7500000000000000000 ) ;
#58 = EDGE_LOOP ( 'NONE', ( #35 ) ) ;
#59 = DIRECTION ( 'NONE',  ( -3.491481338843133355E-15, 1.224646799147353207E-16, -1.000000000000000000 ) ) ;
#60 = CARTESIAN_POINT ( 'NONE',  ( 3.910459099504309358E-14, 5.136677255616845064E-33, 11.19999999999999929 ) ) ;
#61 = ORIENTED_EDGE ( 'NONE', *, *, #182, .T. ) ;
#62 = DIRECTION ( 'NONE',  ( 3.491481338843133355E-15, -1.224646799147353207E-16, 1.000000000000000000 ) ) ;
#63 = DIRECTION ( 'NONE',  ( 0.0000000000000000000, 1.000000000000000000, 0.0000000000000000000 ) ) ;
#64 = CIRCLE ( 'NONE', #21, 0.6850000000000003864 ) ;
#65 = CARTESIAN_POINT ( 'NONE',  ( 0.0000000000000000000, 0.0000000000000000000, 0.0000000000000000000 ) ) ;
#66 = CC_DESIGN_DATE_AND_TIME_ASSIGNMENT ( #87, #107, ( #148 ) ) ;
#67 =( NAMED_UNIT ( * ) PLANE_ANGLE_UNIT ( ) SI_UNIT ( $, .RADIAN. ) );
#68 = VERTEX_POINT ( 'NONE', #200 ) ;
#69 = CONICAL_SURFACE ( 'NONE', #169, 0.6849999999999986100, 1.047197551196592746 ) ;
#70 = CLOSED_SHELL ( 'NONE', ( #17, #34, #175 ) ) ;
#71 = PERSON_AND_ORGANIZATION_ROLE ( 'classification_officer' ) ;
#72 = AXIS2_PLACEMENT_3D ( 'NONE', #60, #126, #42 ) ;
#73 = EDGE_LOOP ( 'NONE', ( #210 ) ) ;
#74 = CARTESIAN_POINT ( 'NONE',  ( 3.910459099504309358E-14, -1.371604415045035513E-15, 11.19999999999999929 ) ) ;
#75 = DIRECTION ( 'NONE',  ( -4.275831445896958607E-31, -1.000000000000000000, -1.224646799147353207E-16 ) ) ;
#76 = CC_DESIGN_APPROVAL ( #51, ( #2 ) ) ;
#77 = ORIENTED_EDGE ( 'NONE', *, *, #23, .F. ) ;
#78 = CARTESIAN_POINT ( 'NONE',  ( 1.047444401652940007E-13, -3.673940397442059178E-15, 30.00000000000000000 ) ) ;
#79 = DIRECTION ( 'NONE',  ( 0.0000000000000000000, 1.000000000000000000, 0.0000000000000000000 ) ) ;
#80 = AXIS2_PLACEMENT_3D ( 'NONE', #6, #110, #41 ) ;
#81 = CALENDAR_DATE ( 2021, 8, 10 ) ;
#82 = MECHANICAL_CONTEXT ( 'NONE', #33, 'mechanical' ) ;
#83 = AXIS2_PLACEMENT_3D ( 'NONE', #92, #84, #101 ) ;
#84 = DIRECTION ( 'NONE',  ( -3.491481338843133355E-15, 1.224646799147353207E-16, -1.000000000000000000 ) ) ;
#85 = DATE_TIME_ROLE ( 'creation_date' ) ;
#86 = ADVANCED_FACE ( 'NONE', ( #128, #91 ), #152, .T. ) ;
#87 = DATE_AND_TIME ( #191, #223 ) ;
#88 = COORDINATED_UNIVERSAL_TIME_OFFSET ( 1, 0, .AHEAD. ) ;
#89 = PERSON_AND_ORGANIZATION ( #43, #139 ) ;
#90 = AXIS2_PLACEMENT_3D ( 'NONE', #65, #168, #202 ) ;
#91 = FACE_BOUND ( 'NONE', #73, .T. ) ;
#92 = CARTESIAN_POINT ( 'NONE',  ( 3.949767349475915021E-14, -1.385391893148458919E-15, 11.31258330249197286 ) ) ;
#93 = PRODUCT_RELATED_PRODUCT_CATEGORY ( 'detail', '', ( #217 ) ) ;
#94 = CARTESIAN_POINT ( 'NONE',  ( 3.910459099504309358E-14, 5.136677255616845064E-33, 11.19999999999999929 ) ) ;
#95 = DIRECTION ( 'NONE',  ( 3.491481338843133355E-15, -1.224646799147353207E-16, 1.000000000000000000 ) ) ;
#96 = CARTESIAN_POINT ( 'NONE',  ( 3.949767349475915021E-14, -1.385391893148458919E-15, 11.31258330249197286 ) ) ;
#97 = EDGE_CURVE ( 'NONE', #116, #116, #213, .T. ) ;
#98 = APPROVAL_STATUS ( 'not_yet_approved' ) ;
#99 = AXIS2_PLACEMENT_3D ( 'NONE', #8, #59, #178 ) ;
#100 = VERTEX_POINT ( 'NONE', #12 ) ;
#101 = DIRECTION ( 'NONE',  ( 0.0000000000000000000, 1.000000000000000000, 0.0000000000000000000 ) ) ;
#102 = APPROVAL_DATE_TIME ( #39, #183 ) ;
#103 = EDGE_LOOP ( 'NONE', ( #158 ) ) ;
#104 = PRODUCT_DEFINITION_FORMATION_WITH_SPECIFIED_SOURCE ( 'ANY', '', #217, .NOT_KNOWN. ) ;
#105 = CALENDAR_DATE ( 2021, 8, 10 ) ;
#106 = COORDINATED_UNIVERSAL_TIME_OFFSET ( 1, 0, .AHEAD. ) ;
#107 = DATE_TIME_ROLE ( 'classification_date' ) ;
#108 = APPROVAL_PERSON_ORGANIZATION ( #89, #24, #119 ) ;
#109 = FACE_OUTER_BOUND ( 'NONE', #7, .T. ) ;
#110 = DIRECTION ( 'NONE',  ( -3.491481338843133355E-15, 1.224646799147353207E-16, -1.000000000000000000 ) ) ;
#111 = EDGE_LOOP ( 'NONE', ( #1 ) ) ;
#112 = FACE_OUTER_BOUND ( 'NONE', #44, .T. ) ;
#113 = CARTESIAN_POINT ( 'NONE',  ( 1.380828268233385162E-15, -4.843293590177120180E-17, 0.3954849343948974028 ) ) ;
#114 = PERSON_AND_ORGANIZATION ( #43, #139 ) ;
#115 = AXIS2_PLACEMENT_3D ( 'NONE', #199, #25, #46 ) ;
#116 = VERTEX_POINT ( 'NONE', #153 ) ;
#117 = AXIS2_PLACEMENT_3D ( 'NONE', #96, #62, #179 ) ;
#118 = CC_DESIGN_SECURITY_CLASSIFICATION ( #148, ( #104 ) ) ;
#119 = APPROVAL_ROLE ( '' ) ;
#120 = ORIENTED_EDGE ( 'NONE', *, *, #138, .T. ) ;
#121 = DATE_AND_TIME ( #205, #31 ) ;
#122 = PERSON_AND_ORGANIZATION_ROLE ( 'creator' ) ;
#123 = ORIENTED_EDGE ( 'NONE', *, *, #129, .T. ) ;
#124 = ORIENTED_EDGE ( 'NONE', *, *, #190, .T. ) ;
#125 = LOCAL_TIME ( 10, 13, 25.00000000000000000, #11 ) ;
#126 = DIRECTION ( 'NONE',  ( 3.491481338843133355E-15, -1.224646799147353207E-16, 1.000000000000000000 ) ) ;
#127 = DIRECTION ( 'NONE',  ( -5.623153122298509901E-31, -1.000000000000000000, -1.582776894139425644E-16 ) ) ;
#128 = FACE_OUTER_BOUND ( 'NONE', #111, .T. ) ;
#129 = EDGE_CURVE ( 'NONE', #68, #68, #64, .T. ) ;
#130 = CC_DESIGN_APPROVAL ( #183, ( #104 ) ) ;
#131 = FACE_OUTER_BOUND ( 'NONE', #196, .T. ) ;
#132 = DIRECTION ( 'NONE',  ( 1.000000000000000000, 0.0000000000000000000, 0.0000000000000000000 ) ) ;
#133 = CARTESIAN_POINT ( 'NONE',  ( 3.910459099504309358E-14, -1.371604415045035513E-15, 11.19999999999999929 ) ) ;
#134 = CC_DESIGN_DATE_AND_TIME_ASSIGNMENT ( #121, #85, ( #2 ) ) ;
#135 = APPROVAL_PERSON_ORGANIZATION ( #19, #183, #36 ) ;
#136 = PERSON_AND_ORGANIZATION_ROLE ( 'design_owner' ) ;
#137 = DIRECTION ( 'NONE',  ( -3.491481338843133355E-15, 1.224646799147353207E-16, -1.000000000000000000 ) ) ;
#138 = EDGE_CURVE ( 'NONE', #218, #218, #57, .T. ) ;
#139 = ORGANIZATION ( 'UNSPECIFIED', 'UNSPECIFIED', '' ) ;
#140 = DATE_AND_TIME ( #105, #159 ) ;
#141 = EDGE_LOOP ( 'NONE', ( #22 ) ) ;
#142 = PERSON_AND_ORGANIZATION ( #43, #139 ) ;
#143 = CC_DESIGN_PERSON_AND_ORGANIZATION_ASSIGNMENT ( #142, #71, ( #148 ) ) ;
#144 = CC_DESIGN_PERSON_AND_ORGANIZATION_ASSIGNMENT ( #16, #136, ( #217 ) ) ;
#145 = PLANE ( 'NONE',  #99 ) ;
#146 = CYLINDRICAL_SURFACE ( 'NONE', #80, 0.6849999999999994982 ) ;
#147 = FACE_BOUND ( 'NONE', #141, .T. ) ;
#148 = SECURITY_CLASSIFICATION ( '', '', #170 ) ;
#149 = AXIS2_PLACEMENT_3D ( 'NONE', #133, #137, #184 ) ;
#150 = CC_DESIGN_PERSON_AND_ORGANIZATION_ASSIGNMENT ( #20, #122, ( #2 ) ) ;
#151 = CARTESIAN_POINT ( 'NONE',  ( 3.910459099504309358E-14, 0.6849999999999989431, 11.19999999999999929 ) ) ;
#152 = CONICAL_SURFACE ( 'NONE', #10, 0.5500000000000000444, 0.7853981633974512766 ) ;
#153 = CARTESIAN_POINT ( 'NONE',  ( 1.380828268233385557E-15, 0.6849999999999986100, 0.3954849343948974583 ) ) ;
#154 = ADVANCED_FACE ( 'NONE', ( #131 ), #145, .F. ) ;
#155 = AXIS2_PLACEMENT_3D ( 'NONE', #211, #29, #63 ) ;
#156 = COORDINATED_UNIVERSAL_TIME_OFFSET ( 1, 0, .AHEAD. ) ;
#157 = PERSON_AND_ORGANIZATION_ROLE ( 'design_supplier' ) ;
#158 = ORIENTED_EDGE ( 'NONE', *, *, #97, .F. ) ;
#159 = LOCAL_TIME ( 10, 13, 25.00000000000000000, #156 ) ;
#160 = CIRCLE ( 'NONE', #149, 0.6850000000000003864 ) ;
#161 = DIRECTION ( 'NONE',  ( -3.491481338843133355E-15, 1.224646799147353207E-16, -1.000000000000000000 ) ) ;
#162 = AXIS2_PLACEMENT_3D ( 'NONE', #165, #207, #176 ) ;
#163 = ORIENTED_EDGE ( 'NONE', *, *, #129, .F. ) ;
#164 = PLANE ( 'NONE',  #27 ) ;
#165 = CARTESIAN_POINT ( 'NONE',  ( 1.047444401652940007E-13, -3.673940397442059178E-15, 30.00000000000000000 ) ) ;
#166 = AXIS2_PLACEMENT_3D ( 'NONE', #32, #13, #132 ) ;
#167 = APPROVAL_ROLE ( '' ) ;
#168 = DIRECTION ( 'NONE',  ( -3.491481338843133355E-15, 1.224646799147353207E-16, -1.000000000000000000 ) ) ;
#169 = AXIS2_PLACEMENT_3D ( 'NONE', #113, #95, #127 ) ;
#170 = SECURITY_CLASSIFICATION_LEVEL ( 'unclassified' ) ;
#171 = CC_DESIGN_PERSON_AND_ORGANIZATION_ASSIGNMENT ( #56, #157, ( #104 ) ) ;
#172 = PERSON_AND_ORGANIZATION ( #43, #139 ) ;
#173 = APPROVAL_STATUS ( 'not_yet_approved' ) ;
#174 = COORDINATED_UNIVERSAL_TIME_OFFSET ( 1, 0, .AHEAD. ) ;
#175 = ADVANCED_FACE ( 'NONE', ( #109 ), #208, .T. ) ;
#176 = DIRECTION ( 'NONE',  ( 0.0000000000000000000, 1.000000000000000000, 0.0000000000000000000 ) ) ;
#177 = ADVANCED_BREP_SHAPE_REPRESENTATION ( '958206', ( #189, #188, #166 ), #54 ) ;
#178 = DIRECTION ( 'NONE',  ( 4.275831445896958607E-31, 1.000000000000000000, 1.224646799147353207E-16 ) ) ;
#179 = DIRECTION ( 'NONE',  ( 0.0000000000000000000, -1.000000000000000000, 0.0000000000000000000 ) ) ;
#180 = ORIENTED_EDGE ( 'NONE', *, *, #97, .T. ) ;
#181 = DIRECTION ( 'NONE',  ( 0.0000000000000000000, 1.000000000000000000, 0.0000000000000000000 ) ) ;
#182 = EDGE_CURVE ( 'NONE', #219, #219, #52, .T. ) ;
#183 = APPROVAL ( #173, 'UNSPECIFIED' ) ;
#184 = DIRECTION ( 'NONE',  ( 0.0000000000000000000, 1.000000000000000000, 0.0000000000000000000 ) ) ;
#185 = PRODUCT_DEFINITION_SHAPE ( 'NONE', 'NONE',  #2 ) ;
#186 = FACE_OUTER_BOUND ( 'NONE', #58, .T. ) ;
#187 = APPLICATION_PROTOCOL_DEFINITION ( 'international standard', 'config_control_design', 1994, #33 ) ;
#188 = MANIFOLD_SOLID_BREP ( 'Corps-Déplacer/Copier1[2]', #70 ) ;
#189 = MANIFOLD_SOLID_BREP ( 'Corps-Déplacer/Copier1[1]', #47 ) ;
#190 = EDGE_CURVE ( 'NONE', #15, #15, #160, .T. ) ;
#191 = CALENDAR_DATE ( 2021, 8, 10 ) ;
#192 = CALENDAR_DATE ( 2021, 8, 10 ) ;
#193 = EDGE_LOOP ( 'NONE', ( #61 ) ) ;
#194 = EDGE_LOOP ( 'NONE', ( #180 ) ) ;
#195 = APPROVAL_PERSON_ORGANIZATION ( #114, #51, #167 ) ;
#196 = EDGE_LOOP ( 'NONE', ( #77 ) ) ;
#197 = FACE_OUTER_BOUND ( 'NONE', #103, .T. ) ;
#198 = DIRECTION ( 'NONE',  ( -3.491481338843133355E-15, 1.224646799147353207E-16, -1.000000000000000000 ) ) ;
#199 = CARTESIAN_POINT ( 'NONE',  ( 1.380828268233385162E-15, -4.843293590177120180E-17, 0.3954849343948974028 ) ) ;
#200 = CARTESIAN_POINT ( 'NONE',  ( 3.910459099504309358E-14, 0.6849999999999989431, 11.19999999999999929 ) ) ;
#201 = CONICAL_SURFACE ( 'NONE', #117, 0.7499999999999977796, 0.5235987755982943748 ) ;
#202 = DIRECTION ( 'NONE',  ( 4.275831445896959482E-31, 1.000000000000000000, 1.224646799147353207E-16 ) ) ;
#203 =( NAMED_UNIT ( * ) SI_UNIT ( $, .STERADIAN. ) SOLID_ANGLE_UNIT ( ) );
#204 = APPROVAL_DATE_TIME ( #140, #24 ) ;
#205 = CALENDAR_DATE ( 2021, 8, 10 ) ;
#206 = EDGE_LOOP ( 'NONE', ( #120 ) ) ;
#207 = DIRECTION ( 'NONE',  ( -3.491481338843133355E-15, 1.224646799147353207E-16, -1.000000000000000000 ) ) ;
#208 = PLANE ( 'NONE',  #72 ) ;
#209 = FACE_OUTER_BOUND ( 'NONE', #194, .T. ) ;
#210 = ORIENTED_EDGE ( 'NONE', *, *, #23, .T. ) ;
#211 = CARTESIAN_POINT ( 'NONE',  ( 1.040461438975253740E-13, -3.649447461459112464E-15, 29.80000000000000071 ) ) ;
#212 = CC_DESIGN_APPROVAL ( #24, ( #148 ) ) ;
#213 = CIRCLE ( 'NONE', #115, 0.6849999999999986100 ) ;
#214 =( LENGTH_UNIT ( ) NAMED_UNIT ( * ) SI_UNIT ( .MILLI., .METRE. ) );
#215 = CARTESIAN_POINT ( 'NONE',  ( 1.040461438975253740E-13, 0.7499999999999963363, 29.80000000000000071 ) ) ;
#216 = FACE_OUTER_BOUND ( 'NONE', #206, .T. ) ;
#217 = PRODUCT ( '958206', '958206', '', ( #82 ) ) ;
#218 = VERTEX_POINT ( 'NONE', #215 ) ;
#219 = VERTEX_POINT ( 'NONE', #50 ) ;
#220 = ADVANCED_FACE ( 'NONE', ( #186, #216 ), #49, .T. ) ;
#221 = APPROVAL_DATE_TIME ( #55, #51 ) ;
#222 = APPROVAL_STATUS ( 'not_yet_approved' ) ;
#223 = LOCAL_TIME ( 10, 13, 25.00000000000000000, #106 ) ;
ENDSEC;
END-ISO-10303-21;
