ISO-10303-21;
HEADER;
FILE_DESCRIPTION (( 'STEP AP203' ),
    '1' );
FILE_NAME ('958205.step',
    '2021-10-08T05:54:22',
    ( '' ),
    ( '' ),
    'SwSTEP 2.0',
    'SolidWorks 2019',
    '' );
FILE_SCHEMA (( 'CONFIG_CONTROL_DESIGN' ));
ENDSEC;

DATA;
#1 = CONICAL_SURFACE ( 'NONE', #74, 0.6849999999999986100, 1.047197551196592746 ) ;
#2 = ORIENTED_EDGE ( 'NONE', *, *, #40, .F. ) ;
#3 = EDGE_LOOP ( 'NONE', ( #87 ) ) ;
#4 = DIRECTION ( 'NONE',  ( 3.491481338843133355E-15, -1.224646799147353207E-16, 1.000000000000000000 ) ) ;
#5 = ADVANCED_FACE ( 'NONE', ( #102, #188 ), #131, .T. ) ;
#6 = ORIENTED_EDGE ( 'NONE', *, *, #13, .T. ) ;
#7 = CC_DESIGN_SECURITY_CLASSIFICATION ( #162, ( #218 ) ) ;
#8 = DIRECTION ( 'NONE',  ( 4.275831445896959482E-31, 1.000000000000000000, 1.224646799147353207E-16 ) ) ;
#9 = ADVANCED_BREP_SHAPE_REPRESENTATION ( '958205', ( #55, #52, #127 ), #46 ) ;
#10 = DIRECTION ( 'NONE',  ( 0.0000000000000000000, 1.000000000000000000, 0.0000000000000000000 ) ) ;
#11 = APPROVAL_PERSON_ORGANIZATION ( #134, #175, #31 ) ;
#12 = DIRECTION ( 'NONE',  ( 4.275831445896958607E-31, 1.000000000000000000, 1.224646799147353207E-16 ) ) ;
#13 = EDGE_CURVE ( 'NONE', #216, #216, #90, .T. ) ;
#14 = DIRECTION ( 'NONE',  ( -4.275831445896958607E-31, -1.000000000000000000, -1.224646799147353207E-16 ) ) ;
#15 = DATE_TIME_ROLE ( 'classification_date' ) ;
#16 = COORDINATED_UNIVERSAL_TIME_OFFSET ( 1, 0, .AHEAD. ) ;
#17 = AXIS2_PLACEMENT_3D ( 'NONE', #38, #155, #8 ) ;
#18 = CALENDAR_DATE ( 2021, 8, 10 ) ;
#19 = EDGE_LOOP ( 'NONE', ( #91 ) ) ;
#20 = EDGE_LOOP ( 'NONE', ( #172 ) ) ;
#21 = APPLICATION_CONTEXT ( 'configuration controlled 3d designs of mechanical parts and assemblies' ) ;
#22 = EDGE_LOOP ( 'NONE', ( #124 ) ) ;
#23 = ADVANCED_FACE ( 'NONE', ( #60 ), #75, .T. ) ;
#24 = DIRECTION ( 'NONE',  ( -3.491481338843133355E-15, 1.224646799147353207E-16, -1.000000000000000000 ) ) ;
#25 = DIRECTION ( 'NONE',  ( -3.491481338843133355E-15, 1.224646799147353207E-16, -1.000000000000000000 ) ) ;
#26 = VERTEX_POINT ( 'NONE', #109 ) ;
#27 = DIRECTION ( 'NONE',  ( -3.491481338843133355E-15, 1.224646799147353207E-16, -1.000000000000000000 ) ) ;
#28 = CARTESIAN_POINT ( 'NONE',  ( 1.380828268233385162E-15, -4.843293590177120180E-17, 0.3954849343948974028 ) ) ;
#29 = APPROVAL ( #65, 'UNSPECIFIED' ) ;
#30 = VERTEX_POINT ( 'NONE', #95 ) ;
#31 = APPROVAL_ROLE ( '' ) ;
#32 = DATE_AND_TIME ( #135, #196 ) ;
#33 = PRODUCT_DEFINITION_SHAPE ( 'NONE', 'NONE',  #149 ) ;
#34 = ORIENTED_EDGE ( 'NONE', *, *, #181, .F. ) ;
#35 = DIRECTION ( 'NONE',  ( 0.0000000000000000000, 1.000000000000000000, 0.0000000000000000000 ) ) ;
#36 = AXIS2_PLACEMENT_3D ( 'NONE', #88, #143, #35 ) ;
#37 = CC_DESIGN_PERSON_AND_ORGANIZATION_ASSIGNMENT ( #151, #80, ( #139 ) ) ;
#38 = CARTESIAN_POINT ( 'NONE',  ( 0.0000000000000000000, 0.0000000000000000000, 0.0000000000000000000 ) ) ;
#39 = CARTESIAN_POINT ( 'NONE',  ( 1.380828268233385162E-15, -4.843293590177120180E-17, 0.3954849343948974028 ) ) ;
#40 = EDGE_CURVE ( 'NONE', #26, #26, #217, .T. ) ;
#41 = DIRECTION ( 'NONE',  ( -3.491481338843133355E-15, 1.224646799147353207E-16, -1.000000000000000000 ) ) ;
#42 = CARTESIAN_POINT ( 'NONE',  ( 0.0000000000000000000, 0.0000000000000000000, 0.0000000000000000000 ) ) ;
#43 = CARTESIAN_POINT ( 'NONE',  ( 3.910459099504309989E-14, 0.6849999999999989431, 11.20000000000000107 ) ) ;
#44 = CARTESIAN_POINT ( 'NONE',  ( 3.910459099504309989E-14, -1.371604415045035710E-15, 11.20000000000000107 ) ) ;
#45 = LOCAL_TIME ( 7, 54, 22.00000000000000000, #170 ) ;
#46 =( GEOMETRIC_REPRESENTATION_CONTEXT ( 3 ) GLOBAL_UNCERTAINTY_ASSIGNED_CONTEXT ( ( #204 ) ) GLOBAL_UNIT_ASSIGNED_CONTEXT ( ( #93, #163, #96 ) ) REPRESENTATION_CONTEXT ( 'NONE', 'WORKASPACE' ) );
#47 = CARTESIAN_POINT ( 'NONE',  ( 3.910459099504309989E-14, 0.6849999999999989431, 11.20000000000000107 ) ) ;
#48 = PERSON_AND_ORGANIZATION ( #51, #144 ) ;
#49 = PRODUCT_RELATED_PRODUCT_CATEGORY ( 'detail', '', ( #139 ) ) ;
#50 = APPROVAL_DATE_TIME ( #32, #29 ) ;
#51 = PERSON ( 'UNSPECIFIED', 'UNSPECIFIED', 'UNSPECIFIED', ('UNSPECIFIED'), ('UNSPECIFIED'), ('UNSPECIFIED') ) ;
#52 = MANIFOLD_SOLID_BREP ( 'Corps-Déplacer/Copier1[2]', #137 ) ;
#53 = AXIS2_PLACEMENT_3D ( 'NONE', #129, #41, #10 ) ;
#54 = PERSON_AND_ORGANIZATION ( #51, #144 ) ;
#55 = MANIFOLD_SOLID_BREP ( 'Corps-Déplacer/Copier1[1]', #195 ) ;
#56 = CIRCLE ( 'NONE', #53, 0.6850000000000003864 ) ;
#57 = CARTESIAN_POINT ( 'NONE',  ( 3.949767349475915652E-14, -1.385391893148459116E-15, 11.31258330249197464 ) ) ;
#58 = ORIENTED_EDGE ( 'NONE', *, *, #66, .F. ) ;
#59 = CYLINDRICAL_SURFACE ( 'NONE', #17, 0.7499999999999988898 ) ;
#60 = FACE_OUTER_BOUND ( 'NONE', #142, .T. ) ;
#61 = AXIS2_PLACEMENT_3D ( 'NONE', #73, #189, #105 ) ;
#62 = DIRECTION ( 'NONE',  ( 4.275831445896958607E-31, 1.000000000000000000, 1.224646799147353207E-16 ) ) ;
#63 = APPROVAL_PERSON_ORGANIZATION ( #153, #222, #115 ) ;
#64 = DIRECTION ( 'NONE',  ( -5.623153122298509901E-31, -1.000000000000000000, -1.582776894139425644E-16 ) ) ;
#65 = APPROVAL_STATUS ( 'not_yet_approved' ) ;
#66 = EDGE_CURVE ( 'NONE', #30, #30, #183, .T. ) ;
#67 = PERSON_AND_ORGANIZATION ( #51, #144 ) ;
#68 = APPROVAL_PERSON_ORGANIZATION ( #48, #29, #167 ) ;
#69 = APPROVAL_STATUS ( 'not_yet_approved' ) ;
#70 = CC_DESIGN_DATE_AND_TIME_ASSIGNMENT ( #140, #184, ( #149 ) ) ;
#71 = DIRECTION ( 'NONE',  ( 3.491481338843133355E-15, -1.224646799147353207E-16, 1.000000000000000000 ) ) ;
#72 = FACE_OUTER_BOUND ( 'NONE', #104, .T. ) ;
#73 = CARTESIAN_POINT ( 'NONE',  ( 1.040461438975253740E-13, -3.649447461459112464E-15, 29.80000000000000071 ) ) ;
#74 = AXIS2_PLACEMENT_3D ( 'NONE', #28, #92, #64 ) ;
#75 = PLANE ( 'NONE',  #154 ) ;
#76 = PLANE ( 'NONE',  #158 ) ;
#77 = DIRECTION ( 'NONE',  ( 0.0000000000000000000, 0.0000000000000000000, 1.000000000000000000 ) ) ;
#78 = DIRECTION ( 'NONE',  ( 0.0000000000000000000, 1.000000000000000000, 0.0000000000000000000 ) ) ;
#79 = VERTEX_POINT ( 'NONE', #43 ) ;
#80 = PERSON_AND_ORGANIZATION_ROLE ( 'design_owner' ) ;
#81 = PERSON_AND_ORGANIZATION ( #51, #144 ) ;
#82 = CIRCLE ( 'NONE', #198, 0.6850000000000003864 ) ;
#83 = EDGE_CURVE ( 'NONE', #160, #160, #207, .T. ) ;
#84 = CALENDAR_DATE ( 2021, 8, 10 ) ;
#85 = COORDINATED_UNIVERSAL_TIME_OFFSET ( 1, 0, .AHEAD. ) ;
#86 = CC_DESIGN_PERSON_AND_ORGANIZATION_ASSIGNMENT ( #166, #201, ( #218 ) ) ;
#87 = ORIENTED_EDGE ( 'NONE', *, *, #83, .F. ) ;
#88 = CARTESIAN_POINT ( 'NONE',  ( 1.047444401652940007E-13, -3.673940397442059178E-15, 30.00000000000000000 ) ) ;
#89 = FACE_OUTER_BOUND ( 'NONE', #173, .T. ) ;
#90 = CIRCLE ( 'NONE', #116, 0.6849999999999986100 ) ;
#91 = ORIENTED_EDGE ( 'NONE', *, *, #215, .T. ) ;
#92 = DIRECTION ( 'NONE',  ( 3.491481338843133355E-15, -1.224646799147353207E-16, 1.000000000000000000 ) ) ;
#93 =( LENGTH_UNIT ( ) NAMED_UNIT ( * ) SI_UNIT ( .MILLI., .METRE. ) );
#94 = DIRECTION ( 'NONE',  ( 3.491481338843133355E-15, -1.224646799147353207E-16, 1.000000000000000000 ) ) ;
#95 = CARTESIAN_POINT ( 'NONE',  ( 1.047444401652940007E-13, 0.5499999999999963807, 30.00000000000000000 ) ) ;
#96 =( NAMED_UNIT ( * ) SI_UNIT ( $, .STERADIAN. ) SOLID_ANGLE_UNIT ( ) );
#97 = AXIS2_PLACEMENT_3D ( 'NONE', #179, #27, #12 ) ;
#98 = COORDINATED_UNIVERSAL_TIME_OFFSET ( 1, 0, .AHEAD. ) ;
#99 = APPROVAL_STATUS ( 'not_yet_approved' ) ;
#100 = LOCAL_TIME ( 7, 54, 22.00000000000000000, #85 ) ;
#101 = DATE_AND_TIME ( #18, #132 ) ;
#102 = FACE_BOUND ( 'NONE', #171, .T. ) ;
#103 = DIRECTION ( 'NONE',  ( 0.0000000000000000000, 1.000000000000000000, 0.0000000000000000000 ) ) ;
#104 = EDGE_LOOP ( 'NONE', ( #159 ) ) ;
#105 = DIRECTION ( 'NONE',  ( 0.0000000000000000000, 1.000000000000000000, 0.0000000000000000000 ) ) ;
#106 = CC_DESIGN_PERSON_AND_ORGANIZATION_ASSIGNMENT ( #81, #223, ( #149 ) ) ;
#107 = EDGE_LOOP ( 'NONE', ( #210 ) ) ;
#108 = AXIS2_PLACEMENT_3D ( 'NONE', #161, #180, #78 ) ;
#109 = CARTESIAN_POINT ( 'NONE',  ( 1.040461438975253740E-13, 0.7499999999999964473, 29.80000000000000071 ) ) ;
#110 = DIRECTION ( 'NONE',  ( 1.000000000000000000, 0.0000000000000000000, 0.0000000000000000000 ) ) ;
#111 = FACE_OUTER_BOUND ( 'NONE', #107, .T. ) ;
#112 = CYLINDRICAL_SURFACE ( 'NONE', #97, 0.6849999999999994982 ) ;
#113 = AXIS2_PLACEMENT_3D ( 'NONE', #57, #206, #103 ) ;
#114 = APPLICATION_PROTOCOL_DEFINITION ( 'international standard', 'config_control_design', 1994, #205 ) ;
#115 = APPROVAL_ROLE ( '' ) ;
#116 = AXIS2_PLACEMENT_3D ( 'NONE', #39, #24, #141 ) ;
#117 = ADVANCED_FACE ( 'NONE', ( #125, #72 ), #59, .T. ) ;
#118 = COORDINATED_UNIVERSAL_TIME_OFFSET ( 1, 0, .AHEAD. ) ;
#119 = CC_DESIGN_APPROVAL ( #175, ( #162 ) ) ;
#120 = ADVANCED_FACE ( 'NONE', ( #89 ), #76, .F. ) ;
#121 = ORIENTED_EDGE ( 'NONE', *, *, #181, .T. ) ;
#122 = ORIENTED_EDGE ( 'NONE', *, *, #215, .F. ) ;
#123 = EDGE_LOOP ( 'NONE', ( #121 ) ) ;
#124 = ORIENTED_EDGE ( 'NONE', *, *, #83, .T. ) ;
#125 = FACE_OUTER_BOUND ( 'NONE', #3, .T. ) ;
#126 = AXIS2_PLACEMENT_3D ( 'NONE', #203, #71, #157 ) ;
#127 = AXIS2_PLACEMENT_3D ( 'NONE', #42, #77, #110 ) ;
#128 = APPLICATION_PROTOCOL_DEFINITION ( 'international standard', 'config_control_design', 1994, #21 ) ;
#129 = CARTESIAN_POINT ( 'NONE',  ( 3.910459099504309989E-14, -1.371604415045035710E-15, 11.20000000000000107 ) ) ;
#130 = FACE_OUTER_BOUND ( 'NONE', #123, .T. ) ;
#131 = CONICAL_SURFACE ( 'NONE', #126, 0.7499999999999977796, 0.5235987755982943748 ) ;
#132 = LOCAL_TIME ( 7, 54, 22.00000000000000000, #16 ) ;
#133 = CC_DESIGN_PERSON_AND_ORGANIZATION_ASSIGNMENT ( #67, #221, ( #162 ) ) ;
#134 = PERSON_AND_ORGANIZATION ( #51, #144 ) ;
#135 = CALENDAR_DATE ( 2021, 8, 10 ) ;
#136 = SHAPE_DEFINITION_REPRESENTATION ( #33, #9 ) ;
#137 = CLOSED_SHELL ( 'NONE', ( #212, #185, #23 ) ) ;
#138 = CC_DESIGN_APPROVAL ( #222, ( #149 ) ) ;
#139 = PRODUCT ( '958205', '958205', '', ( #211 ) ) ;
#140 = DATE_AND_TIME ( #220, #45 ) ;
#141 = DIRECTION ( 'NONE',  ( 5.623153122298509901E-31, 1.000000000000000000, 1.582776894139425644E-16 ) ) ;
#142 = EDGE_LOOP ( 'NONE', ( #122 ) ) ;
#143 = DIRECTION ( 'NONE',  ( -3.491481338843133355E-15, 1.224646799147353207E-16, -1.000000000000000000 ) ) ;
#144 = ORGANIZATION ( 'UNSPECIFIED', 'UNSPECIFIED', '' ) ;
#145 = DIRECTION ( 'NONE',  ( -4.275831445896958607E-31, -1.000000000000000000, -1.224646799147353207E-16 ) ) ;
#146 = CARTESIAN_POINT ( 'NONE',  ( 1.380828268233385557E-15, 0.6849999999999986100, 0.3954849343948974583 ) ) ;
#147 = AXIS2_PLACEMENT_3D ( 'NONE', #164, #94, #14 ) ;
#148 = PLANE ( 'NONE',  #147 ) ;
#149 = PRODUCT_DEFINITION ( 'UNKNOWN', '', #218, #174 ) ;
#150 = FACE_OUTER_BOUND ( 'NONE', #187, .T. ) ;
#151 = PERSON_AND_ORGANIZATION ( #51, #144 ) ;
#152 = APPROVAL_DATE_TIME ( #199, #175 ) ;
#153 = PERSON_AND_ORGANIZATION ( #51, #144 ) ;
#154 = AXIS2_PLACEMENT_3D ( 'NONE', #202, #4, #145 ) ;
#155 = DIRECTION ( 'NONE',  ( -3.491481338843133355E-15, 1.224646799147353207E-16, -1.000000000000000000 ) ) ;
#156 = ADVANCED_FACE ( 'NONE', ( #150, #192 ), #168, .T. ) ;
#157 = DIRECTION ( 'NONE',  ( 0.0000000000000000000, -1.000000000000000000, 0.0000000000000000000 ) ) ;
#158 = AXIS2_PLACEMENT_3D ( 'NONE', #190, #176, #62 ) ;
#159 = ORIENTED_EDGE ( 'NONE', *, *, #40, .T. ) ;
#160 = VERTEX_POINT ( 'NONE', #193 ) ;
#161 = CARTESIAN_POINT ( 'NONE',  ( 1.047444401652940007E-13, -3.673940397442059178E-15, 30.00000000000000000 ) ) ;
#162 = SECURITY_CLASSIFICATION ( '', '', #186 ) ;
#163 =( NAMED_UNIT ( * ) PLANE_ANGLE_UNIT ( ) SI_UNIT ( $, .RADIAN. ) );
#164 = CARTESIAN_POINT ( 'NONE',  ( 3.910459099504309989E-14, -2.073056779704598977E-31, 11.20000000000000107 ) ) ;
#165 = LOCAL_TIME ( 7, 54, 22.00000000000000000, #118 ) ;
#166 = PERSON_AND_ORGANIZATION ( #51, #144 ) ;
#167 = APPROVAL_ROLE ( '' ) ;
#168 = CONICAL_SURFACE ( 'NONE', #108, 0.5500000000000000444, 0.7853981633974516097 ) ;
#169 = CC_DESIGN_PERSON_AND_ORGANIZATION_ASSIGNMENT ( #54, #182, ( #218 ) ) ;
#170 = COORDINATED_UNIVERSAL_TIME_OFFSET ( 1, 0, .AHEAD. ) ;
#171 = EDGE_LOOP ( 'NONE', ( #34 ) ) ;
#172 = ORIENTED_EDGE ( 'NONE', *, *, #66, .T. ) ;
#173 = EDGE_LOOP ( 'NONE', ( #58 ) ) ;
#174 = DESIGN_CONTEXT ( 'detailed design', #205, 'design' ) ;
#175 = APPROVAL ( #99, 'UNSPECIFIED' ) ;
#176 = DIRECTION ( 'NONE',  ( -3.491481338843133355E-15, 1.224646799147353207E-16, -1.000000000000000000 ) ) ;
#177 = CC_DESIGN_APPROVAL ( #29, ( #218 ) ) ;
#178 = DIRECTION ( 'NONE',  ( 0.0000000000000000000, 1.000000000000000000, 0.0000000000000000000 ) ) ;
#179 = CARTESIAN_POINT ( 'NONE',  ( 0.0000000000000000000, 0.0000000000000000000, 0.0000000000000000000 ) ) ;
#180 = DIRECTION ( 'NONE',  ( -3.491481338843133355E-15, 1.224646799147353207E-16, -1.000000000000000000 ) ) ;
#181 = EDGE_CURVE ( 'NONE', #79, #79, #82, .T. ) ;
#182 = PERSON_AND_ORGANIZATION_ROLE ( 'creator' ) ;
#183 = CIRCLE ( 'NONE', #36, 0.5500000000000000444 ) ;
#184 = DATE_TIME_ROLE ( 'creation_date' ) ;
#185 = ADVANCED_FACE ( 'NONE', ( #111, #214 ), #112, .T. ) ;
#186 = SECURITY_CLASSIFICATION_LEVEL ( 'unclassified' ) ;
#187 = EDGE_LOOP ( 'NONE', ( #2 ) ) ;
#188 = FACE_OUTER_BOUND ( 'NONE', #22, .T. ) ;
#189 = DIRECTION ( 'NONE',  ( -3.491481338843133355E-15, 1.224646799147353207E-16, -1.000000000000000000 ) ) ;
#190 = CARTESIAN_POINT ( 'NONE',  ( 1.047444401652940007E-13, 4.124339402320052999E-33, 30.00000000000000000 ) ) ;
#191 = CC_DESIGN_DATE_AND_TIME_ASSIGNMENT ( #197, #15, ( #162 ) ) ;
#192 = FACE_BOUND ( 'NONE', #20, .T. ) ;
#193 = CARTESIAN_POINT ( 'NONE',  ( 3.949767349475915652E-14, 0.7499999999999963363, 11.31258330249197464 ) ) ;
#194 = VERTEX_POINT ( 'NONE', #47 ) ;
#195 = CLOSED_SHELL ( 'NONE', ( #208, #5, #117, #156, #120 ) ) ;
#196 = LOCAL_TIME ( 7, 54, 22.00000000000000000, #98 ) ;
#197 = DATE_AND_TIME ( #219, #100 ) ;
#198 = AXIS2_PLACEMENT_3D ( 'NONE', #44, #25, #178 ) ;
#199 = DATE_AND_TIME ( #84, #165 ) ;
#200 = APPROVAL_DATE_TIME ( #101, #222 ) ;
#201 = PERSON_AND_ORGANIZATION_ROLE ( 'design_supplier' ) ;
#202 = CARTESIAN_POINT ( 'NONE',  ( 3.910459099504309989E-14, -2.073056779704598977E-31, 11.20000000000000107 ) ) ;
#203 = CARTESIAN_POINT ( 'NONE',  ( 3.949767349475915652E-14, -1.385391893148459116E-15, 11.31258330249197464 ) ) ;
#204 = UNCERTAINTY_MEASURE_WITH_UNIT (LENGTH_MEASURE( 1.000000000000000082E-05 ), #93, 'distance_accuracy_value', 'NONE');
#205 = APPLICATION_CONTEXT ( 'configuration controlled 3d designs of mechanical parts and assemblies' ) ;
#206 = DIRECTION ( 'NONE',  ( -3.491481338843133355E-15, 1.224646799147353207E-16, -1.000000000000000000 ) ) ;
#207 = CIRCLE ( 'NONE', #113, 0.7499999999999977796 ) ;
#208 = ADVANCED_FACE ( 'NONE', ( #130 ), #148, .F. ) ;
#209 = EDGE_LOOP ( 'NONE', ( #6 ) ) ;
#210 = ORIENTED_EDGE ( 'NONE', *, *, #13, .F. ) ;
#211 = MECHANICAL_CONTEXT ( 'NONE', #21, 'mechanical' ) ;
#212 = ADVANCED_FACE ( 'NONE', ( #213 ), #1, .T. ) ;
#213 = FACE_OUTER_BOUND ( 'NONE', #209, .T. ) ;
#214 = FACE_OUTER_BOUND ( 'NONE', #19, .T. ) ;
#215 = EDGE_CURVE ( 'NONE', #194, #194, #56, .T. ) ;
#216 = VERTEX_POINT ( 'NONE', #146 ) ;
#217 = CIRCLE ( 'NONE', #61, 0.7500000000000001110 ) ;
#218 = PRODUCT_DEFINITION_FORMATION_WITH_SPECIFIED_SOURCE ( 'ANY', '', #139, .NOT_KNOWN. ) ;
#219 = CALENDAR_DATE ( 2021, 8, 10 ) ;
#220 = CALENDAR_DATE ( 2021, 8, 10 ) ;
#221 = PERSON_AND_ORGANIZATION_ROLE ( 'classification_officer' ) ;
#222 = APPROVAL ( #69, 'UNSPECIFIED' ) ;
#223 = PERSON_AND_ORGANIZATION_ROLE ( 'creator' ) ;
ENDSEC;
END-ISO-10303-21;
