ISO-10303-21;
HEADER;
FILE_DESCRIPTION (( 'STEP AP203' ),
    '1' );
FILE_NAME ('958203.step',
    '2021-10-08T08:13:24',
    ( '' ),
    ( '' ),
    'SwSTEP 2.0',
    'SolidWorks 2019',
    '' );
FILE_SCHEMA (( 'CONFIG_CONTROL_DESIGN' ));
ENDSEC;

DATA;
#1 = COORDINATED_UNIVERSAL_TIME_OFFSET ( 1, 0, .AHEAD. ) ;
#2 = EDGE_CURVE ( 'NONE', #55, #55, #29, .T. ) ;
#3 = AXIS2_PLACEMENT_3D ( 'NONE', #195, #153, #103 ) ;
#4 = PERSON_AND_ORGANIZATION ( #125, #75 ) ;
#5 = FACE_OUTER_BOUND ( 'NONE', #50, .T. ) ;
#6 = DATE_TIME_ROLE ( 'classification_date' ) ;
#7 = APPROVAL_DATE_TIME ( #44, #177 ) ;
#8 = CC_DESIGN_PERSON_AND_ORGANIZATION_ASSIGNMENT ( #209, #107, ( #118 ) ) ;
#9 = DIRECTION ( 'NONE',  ( -3.491481338843133355E-15, 1.224646799147353207E-16, -1.000000000000000000 ) ) ;
#10 = EDGE_LOOP ( 'NONE', ( #48 ) ) ;
#11 =( GEOMETRIC_REPRESENTATION_CONTEXT ( 3 ) GLOBAL_UNCERTAINTY_ASSIGNED_CONTEXT ( ( #138 ) ) GLOBAL_UNIT_ASSIGNED_CONTEXT ( ( #149, #112, #220 ) ) REPRESENTATION_CONTEXT ( 'NONE', 'WORKASPACE' ) );
#12 = FACE_OUTER_BOUND ( 'NONE', #174, .T. ) ;
#13 = ORIENTED_EDGE ( 'NONE', *, *, #121, .T. ) ;
#14 = EDGE_CURVE ( 'NONE', #114, #114, #25, .T. ) ;
#15 = VERTEX_POINT ( 'NONE', #99 ) ;
#16 = FACE_OUTER_BOUND ( 'NONE', #215, .T. ) ;
#17 = DIRECTION ( 'NONE',  ( -2.874522305055582077E-31, -1.000000000000000000, -1.618212197739562334E-16 ) ) ;
#18 = DIRECTION ( 'NONE',  ( -4.275831445896958607E-31, -1.000000000000000000, -1.224646799147353207E-16 ) ) ;
#19 = AXIS2_PLACEMENT_3D ( 'NONE', #204, #189, #17 ) ;
#20 = CARTESIAN_POINT ( 'NONE',  ( 3.958838484084748165E-14, -1.388573618864633854E-15, 11.33856406460550659 ) ) ;
#21 = PRODUCT ( '958203', '958203', '', ( #27 ) ) ;
#22 = PRODUCT_DEFINITION ( 'UNKNOWN', '', #118, #60 ) ;
#23 = CC_DESIGN_DATE_AND_TIME_ASSIGNMENT ( #172, #6, ( #133 ) ) ;
#24 = COORDINATED_UNIVERSAL_TIME_OFFSET ( 1, 0, .AHEAD. ) ;
#25 = CIRCLE ( 'NONE', #59, 0.5500000000000000444 ) ;
#26 = CARTESIAN_POINT ( 'NONE',  ( 3.910459099504309358E-14, 5.024195271917196028E-33, 11.19999999999999929 ) ) ;
#27 = MECHANICAL_CONTEXT ( 'NONE', #134, 'mechanical' ) ;
#28 = APPROVAL_ROLE ( '' ) ;
#29 = CIRCLE ( 'NONE', #33, 0.7499999999999977796 ) ;
#30 = CARTESIAN_POINT ( 'NONE',  ( 1.047444401652940007E-13, 4.124339402320052999E-33, 30.00000000000000000 ) ) ;
#31 = DIRECTION ( 'NONE',  ( -3.491481338843133355E-15, 1.224646799147353207E-16, -1.000000000000000000 ) ) ;
#32 = ORIENTED_EDGE ( 'NONE', *, *, #2, .T. ) ;
#33 = AXIS2_PLACEMENT_3D ( 'NONE', #185, #9, #163 ) ;
#34 = ADVANCED_FACE ( 'NONE', ( #91 ), #161, .F. ) ;
#35 = FACE_OUTER_BOUND ( 'NONE', #127, .T. ) ;
#36 = CARTESIAN_POINT ( 'NONE',  ( 1.047444401652940007E-13, 0.5499999999999963807, 30.00000000000000000 ) ) ;
#37 = DIRECTION ( 'NONE',  ( -3.491481338843133355E-15, 1.224646799147353207E-16, -1.000000000000000000 ) ) ;
#38 = CC_DESIGN_SECURITY_CLASSIFICATION ( #133, ( #118 ) ) ;
#39 = DIRECTION ( 'NONE',  ( 2.874522305055582077E-31, 1.000000000000000000, 1.618212197739562334E-16 ) ) ;
#40 = CARTESIAN_POINT ( 'NONE',  ( 1.350591152870610316E-15, 0.6699999999999985967, 0.3868246803570529746 ) ) ;
#41 = PERSON_AND_ORGANIZATION ( #125, #75 ) ;
#42 = PERSON_AND_ORGANIZATION_ROLE ( 'classification_officer' ) ;
#43 = APPLICATION_PROTOCOL_DEFINITION ( 'international standard', 'config_control_design', 1994, #213 ) ;
#44 = DATE_AND_TIME ( #62, #198 ) ;
#45 = CC_DESIGN_PERSON_AND_ORGANIZATION_ASSIGNMENT ( #120, #92, ( #22 ) ) ;
#46 = CARTESIAN_POINT ( 'NONE',  ( 1.040461438975253740E-13, -3.649447461459112464E-15, 29.80000000000000071 ) ) ;
#47 = AXIS2_PLACEMENT_3D ( 'NONE', #191, #72, #87 ) ;
#48 = ORIENTED_EDGE ( 'NONE', *, *, #126, .F. ) ;
#49 = ADVANCED_FACE ( 'NONE', ( #12 ), #83, .F. ) ;
#50 = EDGE_LOOP ( 'NONE', ( #64 ) ) ;
#51 = DIRECTION ( 'NONE',  ( 4.275831445896959482E-31, 1.000000000000000000, 1.224646799147353207E-16 ) ) ;
#52 = CARTESIAN_POINT ( 'NONE',  ( 1.350591152870610119E-15, -4.737236066304628084E-17, 0.3868246803570528636 ) ) ;
#53 = CIRCLE ( 'NONE', #80, 0.7500000000000000000 ) ;
#54 = APPROVAL_PERSON_ORGANIZATION ( #93, #85, #178 ) ;
#55 = VERTEX_POINT ( 'NONE', #166 ) ;
#56 = CARTESIAN_POINT ( 'NONE',  ( 1.040461438975253740E-13, 0.7499999999999963363, 29.80000000000000071 ) ) ;
#57 = MANIFOLD_SOLID_BREP ( 'Corps-Déplacer/Copier1[2]', #192 ) ;
#58 = APPROVAL_ROLE ( '' ) ;
#59 = AXIS2_PLACEMENT_3D ( 'NONE', #186, #31, #197 ) ;
#60 = DESIGN_CONTEXT ( 'detailed design', #213, 'design' ) ;
#61 = CALENDAR_DATE ( 2021, 8, 10 ) ;
#62 = CALENDAR_DATE ( 2021, 8, 10 ) ;
#63 = CC_DESIGN_PERSON_AND_ORGANIZATION_ASSIGNMENT ( #158, #42, ( #133 ) ) ;
#64 = ORIENTED_EDGE ( 'NONE', *, *, #146, .F. ) ;
#65 = EDGE_LOOP ( 'NONE', ( #164 ) ) ;
#66 = APPROVAL_PERSON_ORGANIZATION ( #208, #180, #28 ) ;
#67 = ORIENTED_EDGE ( 'NONE', *, *, #14, .F. ) ;
#68 = CONICAL_SURFACE ( 'NONE', #19, 0.6699999999999985967, 1.047197551196592746 ) ;
#69 = CIRCLE ( 'NONE', #102, 0.6699999999999992628 ) ;
#70 = DIRECTION ( 'NONE',  ( 3.491481338843133355E-15, -1.224646799147353207E-16, 1.000000000000000000 ) ) ;
#71 = CYLINDRICAL_SURFACE ( 'NONE', #201, 0.7499999999999988898 ) ;
#72 = DIRECTION ( 'NONE',  ( -3.491481338843133355E-15, 1.224646799147353207E-16, -1.000000000000000000 ) ) ;
#73 = PRODUCT_DEFINITION_SHAPE ( 'NONE', 'NONE',  #22 ) ;
#74 = APPROVAL_STATUS ( 'not_yet_approved' ) ;
#75 = ORGANIZATION ( 'UNSPECIFIED', 'UNSPECIFIED', '' ) ;
#76 = CALENDAR_DATE ( 2021, 8, 10 ) ;
#77 = EDGE_LOOP ( 'NONE', ( #13 ) ) ;
#78 = COORDINATED_UNIVERSAL_TIME_OFFSET ( 1, 0, .AHEAD. ) ;
#79 = COORDINATED_UNIVERSAL_TIME_OFFSET ( 1, 0, .AHEAD. ) ;
#80 = AXIS2_PLACEMENT_3D ( 'NONE', #46, #109, #183 ) ;
#81 = AXIS2_PLACEMENT_3D ( 'NONE', #187, #148, #18 ) ;
#82 = EDGE_LOOP ( 'NONE', ( #147 ) ) ;
#83 = PLANE ( 'NONE',  #142 ) ;
#84 = CARTESIAN_POINT ( 'NONE',  ( 3.910459099504309358E-14, 0.6699999999999978195, 11.19999999999999929 ) ) ;
#85 = APPROVAL ( #155, 'UNSPECIFIED' ) ;
#86 = VERTEX_POINT ( 'NONE', #84 ) ;
#87 = DIRECTION ( 'NONE',  ( 0.0000000000000000000, 1.000000000000000000, 0.0000000000000000000 ) ) ;
#88 = FACE_OUTER_BOUND ( 'NONE', #65, .T. ) ;
#89 = SECURITY_CLASSIFICATION_LEVEL ( 'unclassified' ) ;
#90 = PERSON_AND_ORGANIZATION_ROLE ( 'design_supplier' ) ;
#91 = FACE_OUTER_BOUND ( 'NONE', #184, .T. ) ;
#92 = PERSON_AND_ORGANIZATION_ROLE ( 'creator' ) ;
#93 = PERSON_AND_ORGANIZATION ( #125, #75 ) ;
#94 = ADVANCED_FACE ( 'NONE', ( #5, #35 ), #217, .T. ) ;
#95 = ORIENTED_EDGE ( 'NONE', *, *, #2, .F. ) ;
#96 = DIRECTION ( 'NONE',  ( 4.275831445896958607E-31, 1.000000000000000000, 1.224646799147353207E-16 ) ) ;
#97 = ORIENTED_EDGE ( 'NONE', *, *, #218, .T. ) ;
#98 = DIRECTION ( 'NONE',  ( -3.491481338843133355E-15, 1.224646799147353207E-16, -1.000000000000000000 ) ) ;
#99 = CARTESIAN_POINT ( 'NONE',  ( 3.910459099504309358E-14, 0.6699999999999978195, 11.19999999999999929 ) ) ;
#100 = VERTEX_POINT ( 'NONE', #56 ) ;
#101 = FACE_OUTER_BOUND ( 'NONE', #105, .T. ) ;
#102 = AXIS2_PLACEMENT_3D ( 'NONE', #165, #132, #206 ) ;
#103 = DIRECTION ( 'NONE',  ( 1.000000000000000000, 0.0000000000000000000, 0.0000000000000000000 ) ) ;
#104 = CALENDAR_DATE ( 2021, 8, 10 ) ;
#105 = EDGE_LOOP ( 'NONE', ( #144 ) ) ;
#106 = CLOSED_SHELL ( 'NONE', ( #49, #130, #154, #170, #34 ) ) ;
#107 = PERSON_AND_ORGANIZATION_ROLE ( 'creator' ) ;
#108 = PERSON_AND_ORGANIZATION_ROLE ( 'design_owner' ) ;
#109 = DIRECTION ( 'NONE',  ( -3.491481338843133355E-15, 1.224646799147353207E-16, -1.000000000000000000 ) ) ;
#110 = ORIENTED_EDGE ( 'NONE', *, *, #126, .T. ) ;
#111 = DIRECTION ( 'NONE',  ( -3.491481338843133355E-15, 1.224646799147353207E-16, -1.000000000000000000 ) ) ;
#112 =( NAMED_UNIT ( * ) PLANE_ANGLE_UNIT ( ) SI_UNIT ( $, .RADIAN. ) );
#113 = FACE_OUTER_BOUND ( 'NONE', #77, .T. ) ;
#114 = VERTEX_POINT ( 'NONE', #36 ) ;
#115 = APPLICATION_PROTOCOL_DEFINITION ( 'international standard', 'config_control_design', 1994, #134 ) ;
#116 = SHAPE_DEFINITION_REPRESENTATION ( #73, #150 ) ;
#117 = AXIS2_PLACEMENT_3D ( 'NONE', #124, #202, #156 ) ;
#118 = PRODUCT_DEFINITION_FORMATION_WITH_SPECIFIED_SOURCE ( 'ANY', '', #21, .NOT_KNOWN. ) ;
#119 = APPROVAL_DATE_TIME ( #123, #180 ) ;
#120 = PERSON_AND_ORGANIZATION ( #125, #75 ) ;
#121 = EDGE_CURVE ( 'NONE', #100, #100, #53, .T. ) ;
#122 = CC_DESIGN_APPROVAL ( #177, ( #133 ) ) ;
#123 = DATE_AND_TIME ( #76, #167 ) ;
#124 = CARTESIAN_POINT ( 'NONE',  ( 0.0000000000000000000, 0.0000000000000000000, 0.0000000000000000000 ) ) ;
#125 = PERSON ( 'UNSPECIFIED', 'UNSPECIFIED', 'UNSPECIFIED', ('UNSPECIFIED'), ('UNSPECIFIED'), ('UNSPECIFIED') ) ;
#126 = EDGE_CURVE ( 'NONE', #15, #15, #175, .T. ) ;
#127 = EDGE_LOOP ( 'NONE', ( #110 ) ) ;
#128 = CC_DESIGN_APPROVAL ( #85, ( #22 ) ) ;
#129 = ORIENTED_EDGE ( 'NONE', *, *, #218, .F. ) ;
#130 = ADVANCED_FACE ( 'NONE', ( #171, #131 ), #162, .T. ) ;
#131 = FACE_OUTER_BOUND ( 'NONE', #212, .T. ) ;
#132 = DIRECTION ( 'NONE',  ( -3.491481338843133355E-15, 1.224646799147353207E-16, -1.000000000000000000 ) ) ;
#133 = SECURITY_CLASSIFICATION ( '', '', #89 ) ;
#134 = APPLICATION_CONTEXT ( 'configuration controlled 3d designs of mechanical parts and assemblies' ) ;
#135 = PLANE ( 'NONE',  #81 ) ;
#136 = CC_DESIGN_PERSON_AND_ORGANIZATION_ASSIGNMENT ( #4, #108, ( #21 ) ) ;
#137 = APPROVAL_STATUS ( 'not_yet_approved' ) ;
#138 = UNCERTAINTY_MEASURE_WITH_UNIT (LENGTH_MEASURE( 1.000000000000000082E-05 ), #149, 'distance_accuracy_value', 'NONE');
#139 = DATE_AND_TIME ( #104, #219 ) ;
#140 = CALENDAR_DATE ( 2021, 8, 10 ) ;
#141 = ADVANCED_FACE ( 'NONE', ( #101 ), #68, .T. ) ;
#142 = AXIS2_PLACEMENT_3D ( 'NONE', #26, #145, #216 ) ;
#143 = CONICAL_SURFACE ( 'NONE', #47, 0.5500000000000000444, 0.7853981633974512766 ) ;
#144 = ORIENTED_EDGE ( 'NONE', *, *, #146, .T. ) ;
#145 = DIRECTION ( 'NONE',  ( 3.491481338843133355E-15, -1.224646799147353207E-16, 1.000000000000000000 ) ) ;
#146 = EDGE_CURVE ( 'NONE', #190, #190, #211, .T. ) ;
#147 = ORIENTED_EDGE ( 'NONE', *, *, #14, .T. ) ;
#148 = DIRECTION ( 'NONE',  ( 3.491481338843133355E-15, -1.224646799147353207E-16, 1.000000000000000000 ) ) ;
#149 =( LENGTH_UNIT ( ) NAMED_UNIT ( * ) SI_UNIT ( .MILLI., .METRE. ) );
#150 = ADVANCED_BREP_SHAPE_REPRESENTATION ( '958203', ( #200, #57, #3 ), #11 ) ;
#151 = DIRECTION ( 'NONE',  ( 0.0000000000000000000, 1.000000000000000000, 0.0000000000000000000 ) ) ;
#152 = CARTESIAN_POINT ( 'NONE',  ( 0.0000000000000000000, 0.0000000000000000000, 0.0000000000000000000 ) ) ;
#153 = DIRECTION ( 'NONE',  ( 0.0000000000000000000, 0.0000000000000000000, 1.000000000000000000 ) ) ;
#154 = ADVANCED_FACE ( 'NONE', ( #16, #113 ), #71, .T. ) ;
#155 = APPROVAL_STATUS ( 'not_yet_approved' ) ;
#156 = DIRECTION ( 'NONE',  ( 4.275831445896958607E-31, 1.000000000000000000, 1.224646799147353207E-16 ) ) ;
#157 = PERSON_AND_ORGANIZATION ( #125, #75 ) ;
#158 = PERSON_AND_ORGANIZATION ( #125, #75 ) ;
#159 = AXIS2_PLACEMENT_3D ( 'NONE', #169, #98, #151 ) ;
#160 = DIRECTION ( 'NONE',  ( -3.491481338843133355E-15, 1.224646799147353207E-16, -1.000000000000000000 ) ) ;
#161 = PLANE ( 'NONE',  #214 ) ;
#162 = CONICAL_SURFACE ( 'NONE', #205, 0.7499999999999977796, 0.5235987755982991487 ) ;
#163 = DIRECTION ( 'NONE',  ( 0.0000000000000000000, 1.000000000000000000, 0.0000000000000000000 ) ) ;
#164 = ORIENTED_EDGE ( 'NONE', *, *, #121, .F. ) ;
#165 = CARTESIAN_POINT ( 'NONE',  ( 3.910459099504309358E-14, -1.371604415045035513E-15, 11.19999999999999929 ) ) ;
#166 = CARTESIAN_POINT ( 'NONE',  ( 3.958838484084748165E-14, 0.7499999999999963363, 11.33856406460550659 ) ) ;
#167 = LOCAL_TIME ( 10, 13, 24.00000000000000000, #24 ) ;
#168 = CC_DESIGN_PERSON_AND_ORGANIZATION_ASSIGNMENT ( #157, #90, ( #118 ) ) ;
#169 = CARTESIAN_POINT ( 'NONE',  ( 3.910459099504309358E-14, -1.371604415045035513E-15, 11.19999999999999929 ) ) ;
#170 = ADVANCED_FACE ( 'NONE', ( #88, #223 ), #143, .T. ) ;
#171 = FACE_BOUND ( 'NONE', #199, .T. ) ;
#172 = DATE_AND_TIME ( #61, #222 ) ;
#173 = APPROVAL_DATE_TIME ( #139, #85 ) ;
#174 = EDGE_LOOP ( 'NONE', ( #97 ) ) ;
#175 = CIRCLE ( 'NONE', #159, 0.6699999999999992628 ) ;
#176 = LOCAL_TIME ( 10, 13, 24.00000000000000000, #1 ) ;
#177 = APPROVAL ( #74, 'UNSPECIFIED' ) ;
#178 = APPROVAL_ROLE ( '' ) ;
#179 = ADVANCED_FACE ( 'NONE', ( #221 ), #135, .T. ) ;
#180 = APPROVAL ( #137, 'UNSPECIFIED' ) ;
#181 = AXIS2_PLACEMENT_3D ( 'NONE', #52, #111, #39 ) ;
#182 = APPROVAL_PERSON_ORGANIZATION ( #41, #177, #58 ) ;
#183 = DIRECTION ( 'NONE',  ( 0.0000000000000000000, 1.000000000000000000, 0.0000000000000000000 ) ) ;
#184 = EDGE_LOOP ( 'NONE', ( #67 ) ) ;
#185 = CARTESIAN_POINT ( 'NONE',  ( 3.958838484084748165E-14, -1.388573618864633854E-15, 11.33856406460550659 ) ) ;
#186 = CARTESIAN_POINT ( 'NONE',  ( 1.047444401652940007E-13, -3.673940397442059178E-15, 30.00000000000000000 ) ) ;
#187 = CARTESIAN_POINT ( 'NONE',  ( 3.910459099504309358E-14, 5.024195271917196028E-33, 11.19999999999999929 ) ) ;
#188 = CC_DESIGN_DATE_AND_TIME_ASSIGNMENT ( #210, #196, ( #22 ) ) ;
#189 = DIRECTION ( 'NONE',  ( 3.491481338843133355E-15, -1.224646799147353207E-16, 1.000000000000000000 ) ) ;
#190 = VERTEX_POINT ( 'NONE', #40 ) ;
#191 = CARTESIAN_POINT ( 'NONE',  ( 1.047444401652940007E-13, -3.673940397442059178E-15, 30.00000000000000000 ) ) ;
#192 = CLOSED_SHELL ( 'NONE', ( #141, #94, #179 ) ) ;
#193 = CC_DESIGN_APPROVAL ( #180, ( #118 ) ) ;
#194 = COORDINATED_UNIVERSAL_TIME_OFFSET ( 1, 0, .AHEAD. ) ;
#195 = CARTESIAN_POINT ( 'NONE',  ( 0.0000000000000000000, 0.0000000000000000000, 0.0000000000000000000 ) ) ;
#196 = DATE_TIME_ROLE ( 'creation_date' ) ;
#197 = DIRECTION ( 'NONE',  ( 0.0000000000000000000, 1.000000000000000000, 0.0000000000000000000 ) ) ;
#198 = LOCAL_TIME ( 10, 13, 24.00000000000000000, #78 ) ;
#199 = EDGE_LOOP ( 'NONE', ( #129 ) ) ;
#200 = MANIFOLD_SOLID_BREP ( 'Corps-Déplacer/Copier1[1]', #106 ) ;
#201 = AXIS2_PLACEMENT_3D ( 'NONE', #152, #37, #51 ) ;
#202 = DIRECTION ( 'NONE',  ( -3.491481338843133355E-15, 1.224646799147353207E-16, -1.000000000000000000 ) ) ;
#203 = PRODUCT_RELATED_PRODUCT_CATEGORY ( 'detail', '', ( #21 ) ) ;
#204 = CARTESIAN_POINT ( 'NONE',  ( 1.350591152870610119E-15, -4.737236066304628084E-17, 0.3868246803570528636 ) ) ;
#205 = AXIS2_PLACEMENT_3D ( 'NONE', #20, #70, #207 ) ;
#206 = DIRECTION ( 'NONE',  ( 0.0000000000000000000, 1.000000000000000000, 0.0000000000000000000 ) ) ;
#207 = DIRECTION ( 'NONE',  ( 0.0000000000000000000, -1.000000000000000000, 0.0000000000000000000 ) ) ;
#208 = PERSON_AND_ORGANIZATION ( #125, #75 ) ;
#209 = PERSON_AND_ORGANIZATION ( #125, #75 ) ;
#210 = DATE_AND_TIME ( #140, #176 ) ;
#211 = CIRCLE ( 'NONE', #181, 0.6699999999999985967 ) ;
#212 = EDGE_LOOP ( 'NONE', ( #32 ) ) ;
#213 = APPLICATION_CONTEXT ( 'configuration controlled 3d designs of mechanical parts and assemblies' ) ;
#214 = AXIS2_PLACEMENT_3D ( 'NONE', #30, #160, #96 ) ;
#215 = EDGE_LOOP ( 'NONE', ( #95 ) ) ;
#216 = DIRECTION ( 'NONE',  ( -4.275831445896958607E-31, -1.000000000000000000, -1.224646799147353207E-16 ) ) ;
#217 = CYLINDRICAL_SURFACE ( 'NONE', #117, 0.6699999999999989297 ) ;
#218 = EDGE_CURVE ( 'NONE', #86, #86, #69, .T. ) ;
#219 = LOCAL_TIME ( 10, 13, 24.00000000000000000, #79 ) ;
#220 =( NAMED_UNIT ( * ) SI_UNIT ( $, .STERADIAN. ) SOLID_ANGLE_UNIT ( ) );
#221 = FACE_OUTER_BOUND ( 'NONE', #10, .T. ) ;
#222 = LOCAL_TIME ( 10, 13, 24.00000000000000000, #194 ) ;
#223 = FACE_BOUND ( 'NONE', #82, .T. ) ;
ENDSEC;
END-ISO-10303-21;
