ISO-10303-21;
HEADER;
FILE_DESCRIPTION (( 'STEP AP203' ),
    '1' );
FILE_NAME ('958200.step',
    '2021-10-08T08:13:24',
    ( '' ),
    ( '' ),
    'SwSTEP 2.0',
    'SolidWorks 2019',
    '' );
FILE_SCHEMA (( 'CONFIG_CONTROL_DESIGN' ));
ENDSEC;

DATA;
#1 = FACE_OUTER_BOUND ( 'NONE', #195, .T. ) ;
#2 = CC_DESIGN_APPROVAL ( #208, ( #184 ) ) ;
#3 = AXIS2_PLACEMENT_3D ( 'NONE', #186, #112, #187 ) ;
#4 = FACE_OUTER_BOUND ( 'NONE', #50, .T. ) ;
#5 = DIRECTION ( 'NONE',  ( -3.491481338843133355E-15, 1.224646799147353207E-16, -1.000000000000000000 ) ) ;
#6 = VERTEX_POINT ( 'NONE', #104 ) ;
#7 = LOCAL_TIME ( 10, 13, 24.00000000000000000, #212 ) ;
#8 = AXIS2_PLACEMENT_3D ( 'NONE', #85, #154, #139 ) ;
#9 = CC_DESIGN_DATE_AND_TIME_ASSIGNMENT ( #134, #169, ( #102 ) ) ;
#10 = CALENDAR_DATE ( 2021, 8, 10 ) ;
#11 = APPROVAL_STATUS ( 'not_yet_approved' ) ;
#12 = PERSON_AND_ORGANIZATION ( #160, #95 ) ;
#13 = EDGE_CURVE ( 'NONE', #135, #135, #206, .T. ) ;
#14 = ORIENTED_EDGE ( 'NONE', *, *, #24, .F. ) ;
#15 = MANIFOLD_SOLID_BREP ( 'Corps-Déplacer/Copier1[1]', #137 ) ;
#16 = CIRCLE ( 'NONE', #210, 0.5500000000000000444 ) ;
#17 = ORIENTED_EDGE ( 'NONE', *, *, #136, .F. ) ;
#18 = ORIENTED_EDGE ( 'NONE', *, *, #118, .T. ) ;
#19 = APPROVAL_ROLE ( '' ) ;
#20 = FACE_OUTER_BOUND ( 'NONE', #81, .T. ) ;
#21 = AXIS2_PLACEMENT_3D ( 'NONE', #43, #68, #173 ) ;
#22 = DIRECTION ( 'NONE',  ( 0.0000000000000000000, 1.000000000000000000, 0.0000000000000000000 ) ) ;
#23 = DIRECTION ( 'NONE',  ( -3.491481338843133355E-15, 1.224646799147353207E-16, -1.000000000000000000 ) ) ;
#24 = EDGE_CURVE ( 'NONE', #209, #209, #16, .T. ) ;
#25 = APPROVAL ( #223, 'UNSPECIFIED' ) ;
#26 = DIRECTION ( 'NONE',  ( 4.275831445896957731E-31, 1.000000000000000000, 1.224646799147353207E-16 ) ) ;
#27 = SECURITY_CLASSIFICATION_LEVEL ( 'unclassified' ) ;
#28 = AXIS2_PLACEMENT_3D ( 'NONE', #201, #207, #58 ) ;
#29 = CARTESIAN_POINT ( 'NONE',  ( 1.040461438975253740E-13, 0.7499999999999963363, 29.80000000000000071 ) ) ;
#30 = CLOSED_SHELL ( 'NONE', ( #141, #39, #128 ) ) ;
#31 = DATE_AND_TIME ( #181, #7 ) ;
#32 = ADVANCED_FACE ( 'NONE', ( #115, #189 ), #38, .T. ) ;
#33 = PERSON_AND_ORGANIZATION_ROLE ( 'creator' ) ;
#34 = ORIENTED_EDGE ( 'NONE', *, *, #178, .T. ) ;
#35 = CARTESIAN_POINT ( 'NONE',  ( 1.040461438975253740E-13, -3.649447461459112464E-15, 29.80000000000000071 ) ) ;
#36 = APPROVAL_PERSON_ORGANIZATION ( #37, #25, #19 ) ;
#37 = PERSON_AND_ORGANIZATION ( #160, #95 ) ;
#38 = CYLINDRICAL_SURFACE ( 'NONE', #72, 0.7499999999999988898 ) ;
#39 = ADVANCED_FACE ( 'NONE', ( #40, #98 ), #190, .T. ) ;
#40 = FACE_OUTER_BOUND ( 'NONE', #213, .T. ) ;
#41 = DIRECTION ( 'NONE',  ( 0.0000000000000000000, -1.000000000000000000, 0.0000000000000000000 ) ) ;
#42 = CIRCLE ( 'NONE', #80, 0.7500000000000000000 ) ;
#43 = CARTESIAN_POINT ( 'NONE',  ( 3.910459099504309358E-14, 4.911713288217548360E-33, 11.19999999999999929 ) ) ;
#44 = CC_DESIGN_PERSON_AND_ORGANIZATION_ASSIGNMENT ( #123, #197, ( #111 ) ) ;
#45 = VERTEX_POINT ( 'NONE', #29 ) ;
#46 = COORDINATED_UNIVERSAL_TIME_OFFSET ( 1, 0, .AHEAD. ) ;
#47 = ADVANCED_FACE ( 'NONE', ( #133 ), #174, .F. ) ;
#48 = MECHANICAL_CONTEXT ( 'NONE', #121, 'mechanical' ) ;
#49 = EDGE_LOOP ( 'NONE', ( #217 ) ) ;
#50 = EDGE_LOOP ( 'NONE', ( #18 ) ) ;
#51 = CONICAL_SURFACE ( 'NONE', #100, 0.6549999999999988054, 1.047197551196592746 ) ;
#52 = ORIENTED_EDGE ( 'NONE', *, *, #118, .F. ) ;
#53 = CALENDAR_DATE ( 2021, 8, 10 ) ;
#54 = ADVANCED_BREP_SHAPE_REPRESENTATION ( '958200', ( #15, #86, #177 ), #75 ) ;
#55 = DIRECTION ( 'NONE',  ( 0.0000000000000000000, 1.000000000000000000, 0.0000000000000000000 ) ) ;
#56 = CARTESIAN_POINT ( 'NONE',  ( 0.0000000000000000000, 0.0000000000000000000, 0.0000000000000000000 ) ) ;
#57 = CARTESIAN_POINT ( 'NONE',  ( 3.967909618693580678E-14, 0.7499999999999963363, 11.36454482671904032 ) ) ;
#58 = DIRECTION ( 'NONE',  ( -4.275831445896958607E-31, -1.000000000000000000, -1.224646799147353207E-16 ) ) ;
#59 = DIRECTION ( 'NONE',  ( 4.275831445896959482E-31, 1.000000000000000000, 1.224646799147353207E-16 ) ) ;
#60 = CONICAL_SURFACE ( 'NONE', #93, 0.7499999999999977796, 0.5235987755983024794 ) ;
#61 = CC_DESIGN_PERSON_AND_ORGANIZATION_ASSIGNMENT ( #140, #163, ( #102 ) ) ;
#62 = CALENDAR_DATE ( 2021, 8, 10 ) ;
#63 = DIRECTION ( 'NONE',  ( 1.000000000000000000, 0.0000000000000000000, 0.0000000000000000000 ) ) ;
#64 = CARTESIAN_POINT ( 'NONE',  ( 3.910459099504309358E-14, 0.6549999999999966960, 11.19999999999999929 ) ) ;
#65 = LOCAL_TIME ( 10, 13, 24.00000000000000000, #67 ) ;
#66 = PERSON_AND_ORGANIZATION_ROLE ( 'creator' ) ;
#67 = COORDINATED_UNIVERSAL_TIME_OFFSET ( 1, 0, .AHEAD. ) ;
#68 = DIRECTION ( 'NONE',  ( 3.491481338843133355E-15, -1.224646799147353207E-16, 1.000000000000000000 ) ) ;
#69 = DIRECTION ( 'NONE',  ( -3.491481338843133355E-15, 1.224646799147353207E-16, -1.000000000000000000 ) ) ;
#70 = FACE_BOUND ( 'NONE', #216, .T. ) ;
#71 = CIRCLE ( 'NONE', #119, 0.6549999999999981393 ) ;
#72 = AXIS2_PLACEMENT_3D ( 'NONE', #56, #168, #59 ) ;
#73 = CARTESIAN_POINT ( 'NONE',  ( 3.967909618693580678E-14, -1.391755344580808592E-15, 11.36454482671904032 ) ) ;
#74 = DIRECTION ( 'NONE',  ( 3.491481338843133355E-15, -1.224646799147353207E-16, 1.000000000000000000 ) ) ;
#75 =( GEOMETRIC_REPRESENTATION_CONTEXT ( 3 ) GLOBAL_UNCERTAINTY_ASSIGNED_CONTEXT ( ( #205 ) ) GLOBAL_UNIT_ASSIGNED_CONTEXT ( ( #158, #161, #107 ) ) REPRESENTATION_CONTEXT ( 'NONE', 'WORKASPACE' ) );
#76 = AXIS2_PLACEMENT_3D ( 'NONE', #171, #5, #22 ) ;
#77 = PERSON_AND_ORGANIZATION ( #160, #95 ) ;
#78 = PERSON_AND_ORGANIZATION ( #160, #95 ) ;
#79 = DATE_TIME_ROLE ( 'creation_date' ) ;
#80 = AXIS2_PLACEMENT_3D ( 'NONE', #35, #87, #132 ) ;
#81 = EDGE_LOOP ( 'NONE', ( #109 ) ) ;
#82 = FACE_OUTER_BOUND ( 'NONE', #130, .T. ) ;
#83 = DIRECTION ( 'NONE',  ( 3.491481338843133355E-15, -1.224646799147353207E-16, 1.000000000000000000 ) ) ;
#84 = PRODUCT_DEFINITION_SHAPE ( 'NONE', 'NONE',  #184 ) ;
#85 = CARTESIAN_POINT ( 'NONE',  ( 1.047444401652940007E-13, -3.673940397442059178E-15, 30.00000000000000000 ) ) ;
#86 = MANIFOLD_SOLID_BREP ( 'Corps-Déplacer/Copier1[2]', #30 ) ;
#87 = DIRECTION ( 'NONE',  ( -3.491481338843133355E-15, 1.224646799147353207E-16, -1.000000000000000000 ) ) ;
#88 = DIRECTION ( 'NONE',  ( 4.275831445896958607E-31, 1.000000000000000000, 1.224646799147353207E-16 ) ) ;
#89 = CC_DESIGN_PERSON_AND_ORGANIZATION_ASSIGNMENT ( #78, #33, ( #159 ) ) ;
#90 = COORDINATED_UNIVERSAL_TIME_OFFSET ( 1, 0, .AHEAD. ) ;
#91 = ADVANCED_FACE ( 'NONE', ( #156, #20 ), #60, .T. ) ;
#92 = CC_DESIGN_SECURITY_CLASSIFICATION ( #102, ( #159 ) ) ;
#93 = AXIS2_PLACEMENT_3D ( 'NONE', #96, #83, #41 ) ;
#94 = APPROVAL_DATE_TIME ( #31, #167 ) ;
#95 = ORGANIZATION ( 'UNSPECIFIED', 'UNSPECIFIED', '' ) ;
#96 = CARTESIAN_POINT ( 'NONE',  ( 3.967909618693580678E-14, -1.391755344580808592E-15, 11.36454482671904032 ) ) ;
#97 = DIRECTION ( 'NONE',  ( 0.0000000000000000000, 1.000000000000000000, 0.0000000000000000000 ) ) ;
#98 = FACE_OUTER_BOUND ( 'NONE', #165, .T. ) ;
#99 = DIRECTION ( 'NONE',  ( -3.491481338843133355E-15, 1.224646799147353207E-16, -1.000000000000000000 ) ) ;
#100 = AXIS2_PLACEMENT_3D ( 'NONE', #153, #74, #222 ) ;
#101 = DIRECTION ( 'NONE',  ( 0.0000000000000000000, 0.0000000000000000000, 1.000000000000000000 ) ) ;
#102 = SECURITY_CLASSIFICATION ( '', '', #27 ) ;
#103 = CARTESIAN_POINT ( 'NONE',  ( 1.320354037507836062E-15, 0.6549999999999988054, 0.3781644263192086020 ) ) ;
#104 = CARTESIAN_POINT ( 'NONE',  ( 3.910459099504309358E-14, 0.6549999999999966960, 11.19999999999999929 ) ) ;
#105 = APPROVAL_ROLE ( '' ) ;
#106 = ORIENTED_EDGE ( 'NONE', *, *, #146, .F. ) ;
#107 =( NAMED_UNIT ( * ) SI_UNIT ( $, .STERADIAN. ) SOLID_ANGLE_UNIT ( ) );
#108 = ORIENTED_EDGE ( 'NONE', *, *, #146, .T. ) ;
#109 = ORIENTED_EDGE ( 'NONE', *, *, #13, .T. ) ;
#110 = CARTESIAN_POINT ( 'NONE',  ( 1.047444401652940007E-13, -3.673940397442059178E-15, 30.00000000000000000 ) ) ;
#111 = PRODUCT ( '958200', '958200', '', ( #48 ) ) ;
#112 = DIRECTION ( 'NONE',  ( -3.491481338843133355E-15, 1.224646799147353207E-16, -1.000000000000000000 ) ) ;
#113 = CIRCLE ( 'NONE', #76, 0.6549999999999981393 ) ;
#114 = CARTESIAN_POINT ( 'NONE',  ( 1.047444401652940007E-13, 0.5499999999999963807, 30.00000000000000000 ) ) ;
#115 = FACE_OUTER_BOUND ( 'NONE', #49, .T. ) ;
#116 = DIRECTION ( 'NONE',  ( -3.491481338843133355E-15, 1.224646799147353207E-16, -1.000000000000000000 ) ) ;
#117 = APPROVAL_PERSON_ORGANIZATION ( #77, #167, #105 ) ;
#118 = EDGE_CURVE ( 'NONE', #211, #211, #71, .T. ) ;
#119 = AXIS2_PLACEMENT_3D ( 'NONE', #204, #116, #55 ) ;
#120 = DATE_AND_TIME ( #129, #203 ) ;
#121 = APPLICATION_CONTEXT ( 'configuration controlled 3d designs of mechanical parts and assemblies' ) ;
#122 = CC_DESIGN_PERSON_AND_ORGANIZATION_ASSIGNMENT ( #193, #66, ( #184 ) ) ;
#123 = PERSON_AND_ORGANIZATION ( #160, #95 ) ;
#124 = DATE_AND_TIME ( #10, #219 ) ;
#125 = ORIENTED_EDGE ( 'NONE', *, *, #24, .T. ) ;
#126 = LOCAL_TIME ( 10, 13, 24.00000000000000000, #90 ) ;
#127 = DESIGN_CONTEXT ( 'detailed design', #214, 'design' ) ;
#128 = ADVANCED_FACE ( 'NONE', ( #1 ), #221, .T. ) ;
#129 = CALENDAR_DATE ( 2021, 8, 10 ) ;
#130 = EDGE_LOOP ( 'NONE', ( #34 ) ) ;
#131 = EDGE_LOOP ( 'NONE', ( #108 ) ) ;
#132 = DIRECTION ( 'NONE',  ( 0.0000000000000000000, 1.000000000000000000, 0.0000000000000000000 ) ) ;
#133 = FACE_OUTER_BOUND ( 'NONE', #166, .T. ) ;
#134 = DATE_AND_TIME ( #62, #126 ) ;
#135 = VERTEX_POINT ( 'NONE', #57 ) ;
#136 = EDGE_CURVE ( 'NONE', #6, #6, #113, .T. ) ;
#137 = CLOSED_SHELL ( 'NONE', ( #172, #91, #32, #215, #47 ) ) ;
#138 = CARTESIAN_POINT ( 'NONE',  ( 1.047444401652940007E-13, 4.124339402320052999E-33, 30.00000000000000000 ) ) ;
#139 = DIRECTION ( 'NONE',  ( 0.0000000000000000000, 1.000000000000000000, 0.0000000000000000000 ) ) ;
#140 = PERSON_AND_ORGANIZATION ( #160, #95 ) ;
#141 = ADVANCED_FACE ( 'NONE', ( #82 ), #51, .T. ) ;
#142 = CIRCLE ( 'NONE', #3, 0.6549999999999988054 ) ;
#143 = APPLICATION_PROTOCOL_DEFINITION ( 'international standard', 'config_control_design', 1994, #121 ) ;
#144 = APPROVAL_STATUS ( 'not_yet_approved' ) ;
#145 = APPROVAL_ROLE ( '' ) ;
#146 = EDGE_CURVE ( 'NONE', #45, #45, #42, .T. ) ;
#147 = PERSON_AND_ORGANIZATION_ROLE ( 'design_supplier' ) ;
#148 = CC_DESIGN_APPROVAL ( #25, ( #102 ) ) ;
#149 = PRODUCT_RELATED_PRODUCT_CATEGORY ( 'detail', '', ( #111 ) ) ;
#150 = APPROVAL_DATE_TIME ( #218, #25 ) ;
#151 = CARTESIAN_POINT ( 'NONE',  ( 0.0000000000000000000, 0.0000000000000000000, 0.0000000000000000000 ) ) ;
#152 = AXIS2_PLACEMENT_3D ( 'NONE', #73, #69, #175 ) ;
#153 = CARTESIAN_POINT ( 'NONE',  ( 1.320354037507835864E-15, -4.631178542432139068E-17, 0.3781644263192085464 ) ) ;
#154 = DIRECTION ( 'NONE',  ( -3.491481338843133355E-15, 1.224646799147353207E-16, -1.000000000000000000 ) ) ;
#155 = FACE_OUTER_BOUND ( 'NONE', #185, .T. ) ;
#156 = FACE_BOUND ( 'NONE', #199, .T. ) ;
#157 = CC_DESIGN_DATE_AND_TIME_ASSIGNMENT ( #120, #79, ( #184 ) ) ;
#158 =( LENGTH_UNIT ( ) NAMED_UNIT ( * ) SI_UNIT ( .MILLI., .METRE. ) );
#159 = PRODUCT_DEFINITION_FORMATION_WITH_SPECIFIED_SOURCE ( 'ANY', '', #111, .NOT_KNOWN. ) ;
#160 = PERSON ( 'UNSPECIFIED', 'UNSPECIFIED', 'UNSPECIFIED', ('UNSPECIFIED'), ('UNSPECIFIED'), ('UNSPECIFIED') ) ;
#161 =( NAMED_UNIT ( * ) PLANE_ANGLE_UNIT ( ) SI_UNIT ( $, .RADIAN. ) );
#162 = CONICAL_SURFACE ( 'NONE', #8, 0.5500000000000000444, 0.7853981633974512766 ) ;
#163 = PERSON_AND_ORGANIZATION_ROLE ( 'classification_officer' ) ;
#164 = APPROVAL_DATE_TIME ( #124, #208 ) ;
#165 = EDGE_LOOP ( 'NONE', ( #183 ) ) ;
#166 = EDGE_LOOP ( 'NONE', ( #14 ) ) ;
#167 = APPROVAL ( #144, 'UNSPECIFIED' ) ;
#168 = DIRECTION ( 'NONE',  ( -3.491481338843133355E-15, 1.224646799147353207E-16, -1.000000000000000000 ) ) ;
#169 = DATE_TIME_ROLE ( 'classification_date' ) ;
#170 = CC_DESIGN_APPROVAL ( #167, ( #159 ) ) ;
#171 = CARTESIAN_POINT ( 'NONE',  ( 3.910459099504309358E-14, -1.371604415045035513E-15, 11.19999999999999929 ) ) ;
#172 = ADVANCED_FACE ( 'NONE', ( #4 ), #188, .F. ) ;
#173 = DIRECTION ( 'NONE',  ( -4.275831445896958607E-31, -1.000000000000000000, -1.224646799147353207E-16 ) ) ;
#174 = PLANE ( 'NONE',  #191 ) ;
#175 = DIRECTION ( 'NONE',  ( 0.0000000000000000000, 1.000000000000000000, 0.0000000000000000000 ) ) ;
#176 = COORDINATED_UNIVERSAL_TIME_OFFSET ( 1, 0, .AHEAD. ) ;
#177 = AXIS2_PLACEMENT_3D ( 'NONE', #192, #101, #63 ) ;
#178 = EDGE_CURVE ( 'NONE', #194, #194, #142, .T. ) ;
#179 = CC_DESIGN_PERSON_AND_ORGANIZATION_ASSIGNMENT ( #12, #147, ( #159 ) ) ;
#180 = AXIS2_PLACEMENT_3D ( 'NONE', #151, #99, #26 ) ;
#181 = CALENDAR_DATE ( 2021, 8, 10 ) ;
#182 = APPLICATION_PROTOCOL_DEFINITION ( 'international standard', 'config_control_design', 1994, #214 ) ;
#183 = ORIENTED_EDGE ( 'NONE', *, *, #136, .T. ) ;
#184 = PRODUCT_DEFINITION ( 'UNKNOWN', '', #159, #127 ) ;
#185 = EDGE_LOOP ( 'NONE', ( #106 ) ) ;
#186 = CARTESIAN_POINT ( 'NONE',  ( 1.320354037507835864E-15, -4.631178542432139068E-17, 0.3781644263192085464 ) ) ;
#187 = DIRECTION ( 'NONE',  ( 2.940351060133189720E-31, 1.000000000000000000, 8.276352461721422562E-17 ) ) ;
#188 = PLANE ( 'NONE',  #28 ) ;
#189 = FACE_OUTER_BOUND ( 'NONE', #131, .T. ) ;
#190 = CYLINDRICAL_SURFACE ( 'NONE', #180, 0.6549999999999984723 ) ;
#191 = AXIS2_PLACEMENT_3D ( 'NONE', #138, #202, #88 ) ;
#192 = CARTESIAN_POINT ( 'NONE',  ( 0.0000000000000000000, 0.0000000000000000000, 0.0000000000000000000 ) ) ;
#193 = PERSON_AND_ORGANIZATION ( #160, #95 ) ;
#194 = VERTEX_POINT ( 'NONE', #103 ) ;
#195 = EDGE_LOOP ( 'NONE', ( #17 ) ) ;
#196 = APPROVAL_PERSON_ORGANIZATION ( #198, #208, #145 ) ;
#197 = PERSON_AND_ORGANIZATION_ROLE ( 'design_owner' ) ;
#198 = PERSON_AND_ORGANIZATION ( #160, #95 ) ;
#199 = EDGE_LOOP ( 'NONE', ( #52 ) ) ;
#200 = ORIENTED_EDGE ( 'NONE', *, *, #178, .F. ) ;
#201 = CARTESIAN_POINT ( 'NONE',  ( 3.910459099504309358E-14, 4.911713288217548360E-33, 11.19999999999999929 ) ) ;
#202 = DIRECTION ( 'NONE',  ( -3.491481338843133355E-15, 1.224646799147353207E-16, -1.000000000000000000 ) ) ;
#203 = LOCAL_TIME ( 10, 13, 24.00000000000000000, #176 ) ;
#204 = CARTESIAN_POINT ( 'NONE',  ( 3.910459099504309358E-14, -1.371604415045035513E-15, 11.19999999999999929 ) ) ;
#205 = UNCERTAINTY_MEASURE_WITH_UNIT (LENGTH_MEASURE( 1.000000000000000082E-05 ), #158, 'distance_accuracy_value', 'NONE');
#206 = CIRCLE ( 'NONE', #152, 0.7499999999999977796 ) ;
#207 = DIRECTION ( 'NONE',  ( 3.491481338843133355E-15, -1.224646799147353207E-16, 1.000000000000000000 ) ) ;
#208 = APPROVAL ( #11, 'UNSPECIFIED' ) ;
#209 = VERTEX_POINT ( 'NONE', #114 ) ;
#210 = AXIS2_PLACEMENT_3D ( 'NONE', #110, #23, #97 ) ;
#211 = VERTEX_POINT ( 'NONE', #64 ) ;
#212 = COORDINATED_UNIVERSAL_TIME_OFFSET ( 1, 0, .AHEAD. ) ;
#213 = EDGE_LOOP ( 'NONE', ( #200 ) ) ;
#214 = APPLICATION_CONTEXT ( 'configuration controlled 3d designs of mechanical parts and assemblies' ) ;
#215 = ADVANCED_FACE ( 'NONE', ( #155, #70 ), #162, .T. ) ;
#216 = EDGE_LOOP ( 'NONE', ( #125 ) ) ;
#217 = ORIENTED_EDGE ( 'NONE', *, *, #13, .F. ) ;
#218 = DATE_AND_TIME ( #53, #65 ) ;
#219 = LOCAL_TIME ( 10, 13, 24.00000000000000000, #46 ) ;
#220 = SHAPE_DEFINITION_REPRESENTATION ( #84, #54 ) ;
#221 = PLANE ( 'NONE',  #21 ) ;
#222 = DIRECTION ( 'NONE',  ( -2.940351060133189720E-31, -1.000000000000000000, -8.276352461721422562E-17 ) ) ;
#223 = APPROVAL_STATUS ( 'not_yet_approved' ) ;
ENDSEC;
END-ISO-10303-21;
