ISO-10303-21;
HEADER;
FILE_DESCRIPTION (( 'STEP AP203' ),
    '1' );
FILE_NAME ('958199.step',
    '2021-10-08T05:54:21',
    ( '' ),
    ( '' ),
    'SwSTEP 2.0',
    'SolidWorks 2019',
    '' );
FILE_SCHEMA (( 'CONFIG_CONTROL_DESIGN' ));
ENDSEC;

DATA;
#1 = CARTESIAN_POINT ( 'NONE',  ( 0.0000000000000000000, 0.0000000000000000000, 0.0000000000000000000 ) ) ;
#2 = DIRECTION ( 'NONE',  ( 0.0000000000000000000, 1.000000000000000000, 0.0000000000000000000 ) ) ;
#3 = DATE_AND_TIME ( #6, #79 ) ;
#4 = CALENDAR_DATE ( 2021, 8, 10 ) ;
#5 = EDGE_CURVE ( 'NONE', #155, #155, #101, .T. ) ;
#6 = CALENDAR_DATE ( 2021, 8, 10 ) ;
#7 = SHAPE_DEFINITION_REPRESENTATION ( #176, #39 ) ;
#8 = ORIENTED_EDGE ( 'NONE', *, *, #166, .F. ) ;
#9 = EDGE_LOOP ( 'NONE', ( #44 ) ) ;
#10 = CC_DESIGN_PERSON_AND_ORGANIZATION_ASSIGNMENT ( #178, #142, ( #208 ) ) ;
#11 = DIRECTION ( 'NONE',  ( -3.491481338843133355E-15, 1.224646799147353207E-16, -1.000000000000000000 ) ) ;
#12 = DIRECTION ( 'NONE',  ( 0.0000000000000000000, 1.000000000000000000, 0.0000000000000000000 ) ) ;
#13 = DIRECTION ( 'NONE',  ( 0.0000000000000000000, -1.000000000000000000, 0.0000000000000000000 ) ) ;
#14 = LOCAL_TIME ( 7, 54, 21.00000000000000000, #211 ) ;
#15 = LOCAL_TIME ( 7, 54, 21.00000000000000000, #23 ) ;
#16 = FACE_OUTER_BOUND ( 'NONE', #90, .T. ) ;
#17 = DIRECTION ( 'NONE',  ( 3.491481338843133355E-15, -1.224646799147353207E-16, 1.000000000000000000 ) ) ;
#18 = APPROVAL_STATUS ( 'not_yet_approved' ) ;
#19 = PRODUCT_RELATED_PRODUCT_CATEGORY ( 'detail', '', ( #208 ) ) ;
#20 = COORDINATED_UNIVERSAL_TIME_OFFSET ( 1, 0, .AHEAD. ) ;
#21 = APPLICATION_PROTOCOL_DEFINITION ( 'international standard', 'config_control_design', 1994, #115 ) ;
#22 = AXIS2_PLACEMENT_3D ( 'NONE', #34, #11, #2 ) ;
#23 = COORDINATED_UNIVERSAL_TIME_OFFSET ( 1, 0, .AHEAD. ) ;
#24 = EDGE_LOOP ( 'NONE', ( #8 ) ) ;
#25 = CONICAL_SURFACE ( 'NONE', #47, 0.5500000000000000444, 0.7853981633974516097 ) ;
#26 = PLANE ( 'NONE',  #169 ) ;
#27 = FACE_OUTER_BOUND ( 'NONE', #201, .T. ) ;
#28 = CARTESIAN_POINT ( 'NONE',  ( 3.910459099504309358E-14, 0.6549999999999966960, 11.19999999999999929 ) ) ;
#29 = LOCAL_TIME ( 7, 54, 21.00000000000000000, #55 ) ;
#30 = CARTESIAN_POINT ( 'NONE',  ( 3.910459099504309358E-14, 4.911713288217548360E-33, 11.19999999999999929 ) ) ;
#31 = DIRECTION ( 'NONE',  ( -3.491481338843133355E-15, 1.224646799147353207E-16, -1.000000000000000000 ) ) ;
#32 = CARTESIAN_POINT ( 'NONE',  ( 1.320354037507836062E-15, 0.6549999999999988054, 0.3781644263192086020 ) ) ;
#33 = AXIS2_PLACEMENT_3D ( 'NONE', #1, #80, #82 ) ;
#34 = CARTESIAN_POINT ( 'NONE',  ( 1.047444401652940007E-13, -3.673940397442059178E-15, 30.00000000000000000 ) ) ;
#35 = PERSON ( 'UNSPECIFIED', 'UNSPECIFIED', 'UNSPECIFIED', ('UNSPECIFIED'), ('UNSPECIFIED'), ('UNSPECIFIED') ) ;
#36 = PERSON_AND_ORGANIZATION ( #35, #87 ) ;
#37 = UNCERTAINTY_MEASURE_WITH_UNIT (LENGTH_MEASURE( 1.000000000000000082E-05 ), #144, 'distance_accuracy_value', 'NONE');
#38 = MECHANICAL_CONTEXT ( 'NONE', #89, 'mechanical' ) ;
#39 = ADVANCED_BREP_SHAPE_REPRESENTATION ( '958199', ( #42, #194, #212 ), #52 ) ;
#40 = APPROVAL ( #173, 'UNSPECIFIED' ) ;
#41 = CARTESIAN_POINT ( 'NONE',  ( 1.047444401652940007E-13, 4.124339402320052999E-33, 30.00000000000000000 ) ) ;
#42 = MANIFOLD_SOLID_BREP ( 'Corps-Déplacer/Copier1[1]', #43 ) ;
#43 = CLOSED_SHELL ( 'NONE', ( #190, #219, #109, #123, #72 ) ) ;
#44 = ORIENTED_EDGE ( 'NONE', *, *, #197, .T. ) ;
#45 = EDGE_LOOP ( 'NONE', ( #110 ) ) ;
#46 = CARTESIAN_POINT ( 'NONE',  ( 1.320354037507835864E-15, -4.631178542432139068E-17, 0.3781644263192085464 ) ) ;
#47 = AXIS2_PLACEMENT_3D ( 'NONE', #135, #65, #12 ) ;
#48 = CC_DESIGN_DATE_AND_TIME_ASSIGNMENT ( #196, #122, ( #98 ) ) ;
#49 = CARTESIAN_POINT ( 'NONE',  ( 1.040461438975253740E-13, -3.649447461459112464E-15, 29.80000000000000071 ) ) ;
#50 = CARTESIAN_POINT ( 'NONE',  ( 1.040461438975253740E-13, 0.7499999999999964473, 29.80000000000000071 ) ) ;
#51 = FACE_OUTER_BOUND ( 'NONE', #152, .T. ) ;
#52 =( GEOMETRIC_REPRESENTATION_CONTEXT ( 3 ) GLOBAL_UNCERTAINTY_ASSIGNED_CONTEXT ( ( #37 ) ) GLOBAL_UNIT_ASSIGNED_CONTEXT ( ( #144, #121, #213 ) ) REPRESENTATION_CONTEXT ( 'NONE', 'WORKASPACE' ) );
#53 = VERTEX_POINT ( 'NONE', #28 ) ;
#54 = APPROVAL_DATE_TIME ( #207, #40 ) ;
#55 = COORDINATED_UNIVERSAL_TIME_OFFSET ( 1, 0, .AHEAD. ) ;
#56 = CIRCLE ( 'NONE', #93, 0.7500000000000001110 ) ;
#57 = APPROVAL_ROLE ( '' ) ;
#58 = APPROVAL ( #18, 'UNSPECIFIED' ) ;
#59 = AXIS2_PLACEMENT_3D ( 'NONE', #46, #99, #168 ) ;
#60 = DIRECTION ( 'NONE',  ( 4.275831445896958607E-31, 1.000000000000000000, 1.224646799147353207E-16 ) ) ;
#61 = DIRECTION ( 'NONE',  ( 4.275831445896959482E-31, 1.000000000000000000, 1.224646799147353207E-16 ) ) ;
#62 = FACE_OUTER_BOUND ( 'NONE', #114, .T. ) ;
#63 = CC_DESIGN_APPROVAL ( #58, ( #136 ) ) ;
#64 = VERTEX_POINT ( 'NONE', #50 ) ;
#65 = DIRECTION ( 'NONE',  ( -3.491481338843133355E-15, 1.224646799147353207E-16, -1.000000000000000000 ) ) ;
#66 = CC_DESIGN_PERSON_AND_ORGANIZATION_ASSIGNMENT ( #105, #159, ( #136 ) ) ;
#67 = CC_DESIGN_PERSON_AND_ORGANIZATION_ASSIGNMENT ( #126, #158, ( #136 ) ) ;
#68 = APPROVAL_ROLE ( '' ) ;
#69 = AXIS2_PLACEMENT_3D ( 'NONE', #97, #102, #220 ) ;
#70 = CONICAL_SURFACE ( 'NONE', #183, 0.7499999999999977796, 0.5235987755983024794 ) ;
#71 = APPROVAL_STATUS ( 'not_yet_approved' ) ;
#72 = ADVANCED_FACE ( 'NONE', ( #198 ), #26, .F. ) ;
#73 = ORIENTED_EDGE ( 'NONE', *, *, #143, .F. ) ;
#74 = APPROVAL_PERSON_ORGANIZATION ( #191, #58, #83 ) ;
#75 = CARTESIAN_POINT ( 'NONE',  ( 1.047444401652940007E-13, 0.5499999999999963807, 30.00000000000000000 ) ) ;
#76 = ADVANCED_FACE ( 'NONE', ( #27 ), #77, .T. ) ;
#77 = PLANE ( 'NONE',  #69 ) ;
#78 = FACE_OUTER_BOUND ( 'NONE', #9, .T. ) ;
#79 = LOCAL_TIME ( 7, 54, 21.00000000000000000, #20 ) ;
#80 = DIRECTION ( 'NONE',  ( -3.491481338843133355E-15, 1.224646799147353207E-16, -1.000000000000000000 ) ) ;
#81 = ADVANCED_FACE ( 'NONE', ( #62, #16 ), #154, .T. ) ;
#82 = DIRECTION ( 'NONE',  ( 4.275831445896957731E-31, 1.000000000000000000, 1.224646799147353207E-16 ) ) ;
#83 = APPROVAL_ROLE ( '' ) ;
#84 = AXIS2_PLACEMENT_3D ( 'NONE', #140, #221, #137 ) ;
#85 = CC_DESIGN_PERSON_AND_ORGANIZATION_ASSIGNMENT ( #86, #88, ( #98 ) ) ;
#86 = PERSON_AND_ORGANIZATION ( #35, #87 ) ;
#87 = ORGANIZATION ( 'UNSPECIFIED', 'UNSPECIFIED', '' ) ;
#88 = PERSON_AND_ORGANIZATION_ROLE ( 'creator' ) ;
#89 = APPLICATION_CONTEXT ( 'configuration controlled 3d designs of mechanical parts and assemblies' ) ;
#90 = EDGE_LOOP ( 'NONE', ( #149 ) ) ;
#91 = DIRECTION ( 'NONE',  ( -3.491481338843133355E-15, 1.224646799147353207E-16, -1.000000000000000000 ) ) ;
#92 = AXIS2_PLACEMENT_3D ( 'NONE', #182, #91, #130 ) ;
#93 = AXIS2_PLACEMENT_3D ( 'NONE', #49, #117, #104 ) ;
#94 = DIRECTION ( 'NONE',  ( -3.491481338843133355E-15, 1.224646799147353207E-16, -1.000000000000000000 ) ) ;
#95 = EDGE_LOOP ( 'NONE', ( #131 ) ) ;
#96 = CC_DESIGN_APPROVAL ( #40, ( #98 ) ) ;
#97 = CARTESIAN_POINT ( 'NONE',  ( 3.910459099504309358E-14, 4.911713288217548360E-33, 11.19999999999999929 ) ) ;
#98 = PRODUCT_DEFINITION ( 'UNKNOWN', '', #136, #210 ) ;
#99 = DIRECTION ( 'NONE',  ( 3.491481338843133355E-15, -1.224646799147353207E-16, 1.000000000000000000 ) ) ;
#100 = DIRECTION ( 'NONE',  ( 3.491481338843133355E-15, -1.224646799147353207E-16, 1.000000000000000000 ) ) ;
#101 = CIRCLE ( 'NONE', #92, 0.6549999999999981393 ) ;
#102 = DIRECTION ( 'NONE',  ( 3.491481338843133355E-15, -1.224646799147353207E-16, 1.000000000000000000 ) ) ;
#103 = AXIS2_PLACEMENT_3D ( 'NONE', #139, #119, #61 ) ;
#104 = DIRECTION ( 'NONE',  ( 0.0000000000000000000, 1.000000000000000000, 0.0000000000000000000 ) ) ;
#105 = PERSON_AND_ORGANIZATION ( #35, #87 ) ;
#106 = PERSON_AND_ORGANIZATION_ROLE ( 'classification_officer' ) ;
#107 = APPLICATION_PROTOCOL_DEFINITION ( 'international standard', 'config_control_design', 1994, #89 ) ;
#108 = ORIENTED_EDGE ( 'NONE', *, *, #166, .T. ) ;
#109 = ADVANCED_FACE ( 'NONE', ( #51, #156 ), #203, .T. ) ;
#110 = ORIENTED_EDGE ( 'NONE', *, *, #138, .T. ) ;
#111 = AXIS2_PLACEMENT_3D ( 'NONE', #172, #31, #204 ) ;
#112 = CIRCLE ( 'NONE', #22, 0.5500000000000000444 ) ;
#113 = ORIENTED_EDGE ( 'NONE', *, *, #129, .T. ) ;
#114 = EDGE_LOOP ( 'NONE', ( #73 ) ) ;
#115 = APPLICATION_CONTEXT ( 'configuration controlled 3d designs of mechanical parts and assemblies' ) ;
#116 = FACE_OUTER_BOUND ( 'NONE', #45, .T. ) ;
#117 = DIRECTION ( 'NONE',  ( -3.491481338843133355E-15, 1.224646799147353207E-16, -1.000000000000000000 ) ) ;
#118 = DIRECTION ( 'NONE',  ( -3.491481338843133355E-15, 1.224646799147353207E-16, -1.000000000000000000 ) ) ;
#119 = DIRECTION ( 'NONE',  ( -3.491481338843133355E-15, 1.224646799147353207E-16, -1.000000000000000000 ) ) ;
#120 = CIRCLE ( 'NONE', #84, 0.6549999999999988054 ) ;
#121 =( NAMED_UNIT ( * ) PLANE_ANGLE_UNIT ( ) SI_UNIT ( $, .RADIAN. ) );
#122 = DATE_TIME_ROLE ( 'creation_date' ) ;
#123 = ADVANCED_FACE ( 'NONE', ( #157, #185 ), #25, .T. ) ;
#124 = SECURITY_CLASSIFICATION_LEVEL ( 'unclassified' ) ;
#125 = CIRCLE ( 'NONE', #145, 0.6549999999999981393 ) ;
#126 = PERSON_AND_ORGANIZATION ( #35, #87 ) ;
#127 = DATE_AND_TIME ( #193, #29 ) ;
#128 = ORIENTED_EDGE ( 'NONE', *, *, #197, .F. ) ;
#129 = EDGE_CURVE ( 'NONE', #188, #188, #112, .T. ) ;
#130 = DIRECTION ( 'NONE',  ( 0.0000000000000000000, 1.000000000000000000, 0.0000000000000000000 ) ) ;
#131 = ORIENTED_EDGE ( 'NONE', *, *, #143, .T. ) ;
#132 = CC_DESIGN_APPROVAL ( #133, ( #175 ) ) ;
#133 = APPROVAL ( #71, 'UNSPECIFIED' ) ;
#134 = EDGE_LOOP ( 'NONE', ( #184 ) ) ;
#135 = CARTESIAN_POINT ( 'NONE',  ( 1.047444401652940007E-13, -3.673940397442059178E-15, 30.00000000000000000 ) ) ;
#136 = PRODUCT_DEFINITION_FORMATION_WITH_SPECIFIED_SOURCE ( 'ANY', '', #208, .NOT_KNOWN. ) ;
#137 = DIRECTION ( 'NONE',  ( 2.940351060133189720E-31, 1.000000000000000000, 8.276352461721422562E-17 ) ) ;
#138 = EDGE_CURVE ( 'NONE', #53, #53, #125, .T. ) ;
#139 = CARTESIAN_POINT ( 'NONE',  ( 0.0000000000000000000, 0.0000000000000000000, 0.0000000000000000000 ) ) ;
#140 = CARTESIAN_POINT ( 'NONE',  ( 1.320354037507835864E-15, -4.631178542432139068E-17, 0.3781644263192085464 ) ) ;
#141 = FACE_OUTER_BOUND ( 'NONE', #95, .T. ) ;
#142 = PERSON_AND_ORGANIZATION_ROLE ( 'design_owner' ) ;
#143 = EDGE_CURVE ( 'NONE', #223, #223, #120, .T. ) ;
#144 =( LENGTH_UNIT ( ) NAMED_UNIT ( * ) SI_UNIT ( .MILLI., .METRE. ) );
#145 = AXIS2_PLACEMENT_3D ( 'NONE', #202, #118, #171 ) ;
#146 = DIRECTION ( 'NONE',  ( 0.0000000000000000000, 0.0000000000000000000, 1.000000000000000000 ) ) ;
#147 = DATE_TIME_ROLE ( 'classification_date' ) ;
#148 = ORIENTED_EDGE ( 'NONE', *, *, #5, .F. ) ;
#149 = ORIENTED_EDGE ( 'NONE', *, *, #5, .T. ) ;
#150 = AXIS2_PLACEMENT_3D ( 'NONE', #30, #17, #187 ) ;
#151 = CC_DESIGN_PERSON_AND_ORGANIZATION_ASSIGNMENT ( #36, #106, ( #175 ) ) ;
#152 = EDGE_LOOP ( 'NONE', ( #128 ) ) ;
#153 = CARTESIAN_POINT ( 'NONE',  ( 3.967909618693580678E-14, 0.7499999999999963363, 11.36454482671904032 ) ) ;
#154 = CYLINDRICAL_SURFACE ( 'NONE', #33, 0.6549999999999984723 ) ;
#155 = VERTEX_POINT ( 'NONE', #206 ) ;
#156 = FACE_OUTER_BOUND ( 'NONE', #215, .T. ) ;
#157 = FACE_OUTER_BOUND ( 'NONE', #24, .T. ) ;
#158 = PERSON_AND_ORGANIZATION_ROLE ( 'creator' ) ;
#159 = PERSON_AND_ORGANIZATION_ROLE ( 'design_supplier' ) ;
#160 = APPROVAL_DATE_TIME ( #127, #58 ) ;
#161 = CC_DESIGN_DATE_AND_TIME_ASSIGNMENT ( #3, #147, ( #175 ) ) ;
#162 = PERSON_AND_ORGANIZATION ( #35, #87 ) ;
#163 = CC_DESIGN_SECURITY_CLASSIFICATION ( #175, ( #136 ) ) ;
#164 = CONICAL_SURFACE ( 'NONE', #59, 0.6549999999999988054, 1.047197551196592746 ) ;
#165 = EDGE_LOOP ( 'NONE', ( #218 ) ) ;
#166 = EDGE_CURVE ( 'NONE', #64, #64, #56, .T. ) ;
#167 = VERTEX_POINT ( 'NONE', #153 ) ;
#168 = DIRECTION ( 'NONE',  ( -2.940351060133189720E-31, -1.000000000000000000, -8.276352461721422562E-17 ) ) ;
#169 = AXIS2_PLACEMENT_3D ( 'NONE', #41, #94, #60 ) ;
#170 = APPROVAL_PERSON_ORGANIZATION ( #162, #40, #57 ) ;
#171 = DIRECTION ( 'NONE',  ( 0.0000000000000000000, 1.000000000000000000, 0.0000000000000000000 ) ) ;
#172 = CARTESIAN_POINT ( 'NONE',  ( 3.967909618693580678E-14, -1.391755344580808592E-15, 11.36454482671904032 ) ) ;
#173 = APPROVAL_STATUS ( 'not_yet_approved' ) ;
#174 = CALENDAR_DATE ( 2021, 8, 10 ) ;
#175 = SECURITY_CLASSIFICATION ( '', '', #124 ) ;
#176 = PRODUCT_DEFINITION_SHAPE ( 'NONE', 'NONE',  #98 ) ;
#177 = CARTESIAN_POINT ( 'NONE',  ( 0.0000000000000000000, 0.0000000000000000000, 0.0000000000000000000 ) ) ;
#178 = PERSON_AND_ORGANIZATION ( #35, #87 ) ;
#179 = COORDINATED_UNIVERSAL_TIME_OFFSET ( 1, 0, .AHEAD. ) ;
#180 = ADVANCED_FACE ( 'NONE', ( #141 ), #164, .T. ) ;
#181 = APPROVAL_DATE_TIME ( #217, #133 ) ;
#182 = CARTESIAN_POINT ( 'NONE',  ( 3.910459099504309358E-14, -1.371604415045035513E-15, 11.19999999999999929 ) ) ;
#183 = AXIS2_PLACEMENT_3D ( 'NONE', #205, #100, #13 ) ;
#184 = ORIENTED_EDGE ( 'NONE', *, *, #138, .F. ) ;
#185 = FACE_BOUND ( 'NONE', #199, .T. ) ;
#186 = PLANE ( 'NONE',  #150 ) ;
#187 = DIRECTION ( 'NONE',  ( -4.275831445896958607E-31, -1.000000000000000000, -1.224646799147353207E-16 ) ) ;
#188 = VERTEX_POINT ( 'NONE', #75 ) ;
#189 = FACE_BOUND ( 'NONE', #134, .T. ) ;
#190 = ADVANCED_FACE ( 'NONE', ( #116 ), #186, .F. ) ;
#191 = PERSON_AND_ORGANIZATION ( #35, #87 ) ;
#192 = CLOSED_SHELL ( 'NONE', ( #180, #81, #76 ) ) ;
#193 = CALENDAR_DATE ( 2021, 8, 10 ) ;
#194 = MANIFOLD_SOLID_BREP ( 'Corps-Déplacer/Copier1[2]', #192 ) ;
#195 = CALENDAR_DATE ( 2021, 8, 10 ) ;
#196 = DATE_AND_TIME ( #174, #15 ) ;
#197 = EDGE_CURVE ( 'NONE', #167, #167, #222, .T. ) ;
#198 = FACE_OUTER_BOUND ( 'NONE', #165, .T. ) ;
#199 = EDGE_LOOP ( 'NONE', ( #113 ) ) ;
#200 = LOCAL_TIME ( 7, 54, 21.00000000000000000, #179 ) ;
#201 = EDGE_LOOP ( 'NONE', ( #148 ) ) ;
#202 = CARTESIAN_POINT ( 'NONE',  ( 3.910459099504309358E-14, -1.371604415045035513E-15, 11.19999999999999929 ) ) ;
#203 = CYLINDRICAL_SURFACE ( 'NONE', #103, 0.7499999999999988898 ) ;
#204 = DIRECTION ( 'NONE',  ( 0.0000000000000000000, 1.000000000000000000, 0.0000000000000000000 ) ) ;
#205 = CARTESIAN_POINT ( 'NONE',  ( 3.967909618693580678E-14, -1.391755344580808592E-15, 11.36454482671904032 ) ) ;
#206 = CARTESIAN_POINT ( 'NONE',  ( 3.910459099504309358E-14, 0.6549999999999966960, 11.19999999999999929 ) ) ;
#207 = DATE_AND_TIME ( #4, #200 ) ;
#208 = PRODUCT ( '958199', '958199', '', ( #38 ) ) ;
#209 = DIRECTION ( 'NONE',  ( 1.000000000000000000, 0.0000000000000000000, 0.0000000000000000000 ) ) ;
#210 = DESIGN_CONTEXT ( 'detailed design', #115, 'design' ) ;
#211 = COORDINATED_UNIVERSAL_TIME_OFFSET ( 1, 0, .AHEAD. ) ;
#212 = AXIS2_PLACEMENT_3D ( 'NONE', #177, #146, #209 ) ;
#213 =( NAMED_UNIT ( * ) SI_UNIT ( $, .STERADIAN. ) SOLID_ANGLE_UNIT ( ) );
#214 = PERSON_AND_ORGANIZATION ( #35, #87 ) ;
#215 = EDGE_LOOP ( 'NONE', ( #108 ) ) ;
#216 = APPROVAL_PERSON_ORGANIZATION ( #214, #133, #68 ) ;
#217 = DATE_AND_TIME ( #195, #14 ) ;
#218 = ORIENTED_EDGE ( 'NONE', *, *, #129, .F. ) ;
#219 = ADVANCED_FACE ( 'NONE', ( #189, #78 ), #70, .T. ) ;
#220 = DIRECTION ( 'NONE',  ( -4.275831445896958607E-31, -1.000000000000000000, -1.224646799147353207E-16 ) ) ;
#221 = DIRECTION ( 'NONE',  ( -3.491481338843133355E-15, 1.224646799147353207E-16, -1.000000000000000000 ) ) ;
#222 = CIRCLE ( 'NONE', #111, 0.7499999999999977796 ) ;
#223 = VERTEX_POINT ( 'NONE', #32 ) ;
ENDSEC;
END-ISO-10303-21;
