ISO-10303-21;
HEADER;
FILE_DESCRIPTION (( 'STEP AP203' ),
    '1' );
FILE_NAME ('958068.step',
    '2021-11-30T06:45:12',
    ( '' ),
    ( '' ),
    'SwSTEP 2.0',
    'SolidWorks 2019',
    '' );
FILE_SCHEMA (( 'CONFIG_CONTROL_DESIGN' ));
ENDSEC;

DATA;
#1 = PERSON_AND_ORGANIZATION ( #174, #261 ) ;
#2 = EDGE_LOOP ( 'NONE', ( #242 ) ) ;
#3 = EDGE_CURVE ( 'NONE', #132, #132, #250, .T. ) ;
#4 = AXIS2_PLACEMENT_3D ( 'NONE', #171, #270, #152 ) ;
#5 = DIRECTION ( 'NONE',  ( -3.491481338843133355E-15, 1.224646799147353207E-16, -1.000000000000000000 ) ) ;
#6 = AXIS2_PLACEMENT_3D ( 'NONE', #291, #56, #243 ) ;
#7 = PLANE ( 'NONE',  #151 ) ;
#8 = CARTESIAN_POINT ( 'NONE',  ( 3.491481338843133355E-14, 8.912322508468031551E-33, 10.00000000000000000 ) ) ;
#9 = CARTESIAN_POINT ( 'NONE',  ( 1.745740669421566678E-13, -6.123233995736766085E-15, 50.00000000000000000 ) ) ;
#10 = TOROIDAL_SURFACE ( 'NONE', #140, 3.035000000000000586, 2.000000000000000000 ) ;
#11 = AXIS2_PLACEMENT_3D ( 'NONE', #109, #273, #111 ) ;
#12 = CARTESIAN_POINT ( 'NONE',  ( 1.735266225405037467E-13, 1.499999999999995559, 49.70000000000000284 ) ) ;
#13 =( NAMED_UNIT ( * ) SI_UNIT ( $, .STERADIAN. ) SOLID_ANGLE_UNIT ( ) );
#14 = CARTESIAN_POINT ( 'NONE',  ( 3.584309283006850656E-14, 1.034999999999997478, 10.26586979896182150 ) ) ;
#15 = DESIGN_CONTEXT ( 'detailed design', #269, 'design' ) ;
#16 = DATE_AND_TIME ( #272, #189 ) ;
#17 = CARTESIAN_POINT ( 'NONE',  ( 7.104220552055901835E-14, 1.065384493975578772, 20.34729635533384595 ) ) ;
#18 = CC_DESIGN_DATE_AND_TIME_ASSIGNMENT ( #101, #245, ( #237 ) ) ;
#19 = APPLICATION_PROTOCOL_DEFINITION ( 'international standard', 'config_control_design', 1994, #76 ) ;
#20 = ORIENTED_EDGE ( 'NONE', *, *, #290, .F. ) ;
#21 = SECURITY_CLASSIFICATION_LEVEL ( 'unclassified' ) ;
#22 = EDGE_CURVE ( 'NONE', #230, #230, #231, .T. ) ;
#23 = EDGE_LOOP ( 'NONE', ( #43 ) ) ;
#24 = PERSON_AND_ORGANIZATION ( #174, #261 ) ;
#25 = DIRECTION ( 'NONE',  ( -3.491481338843133355E-15, 1.224646799147353207E-16, -1.000000000000000000 ) ) ;
#26 = AXIS2_PLACEMENT_3D ( 'NONE', #65, #42, #130 ) ;
#27 = SHAPE_DEFINITION_REPRESENTATION ( #148, #262 ) ;
#28 = ADVANCED_FACE ( 'NONE', ( #54, #46 ), #209, .T. ) ;
#29 = EDGE_LOOP ( 'NONE', ( #263 ) ) ;
#30 = CLOSED_SHELL ( 'NONE', ( #98, #279, #193, #45, #77, #226, #28, #35 ) ) ;
#31 = CALENDAR_DATE ( 2021, 30, 11 ) ;
#32 = FACE_BOUND ( 'NONE', #281, .T. ) ;
#33 = DIRECTION ( 'NONE',  ( -4.275831445896958607E-31, -1.000000000000000000, -1.224646799147353207E-16 ) ) ;
#34 = CONICAL_SURFACE ( 'NONE', #238, 1.499999999999996669, 0.1745329251994260922 ) ;
#35 = ADVANCED_FACE ( 'NONE', ( #116 ), #207, .F. ) ;
#36 = CARTESIAN_POINT ( 'NONE',  ( 7.964810305682487044E-14, -2.793679387071226666E-15, 22.81212337317416683 ) ) ;
#37 = DIRECTION ( 'NONE',  ( 0.0000000000000000000, 1.000000000000000000, 0.0000000000000000000 ) ) ;
#38 = APPROVAL ( #117, 'UNSPECIFIED' ) ;
#39 = DIRECTION ( 'NONE',  ( -3.491481338843133355E-15, 1.224646799147353207E-16, -1.000000000000000000 ) ) ;
#40 = PERSON_AND_ORGANIZATION_ROLE ( 'design_owner' ) ;
#41 = PERSON_AND_ORGANIZATION ( #174, #261 ) ;
#42 = DIRECTION ( 'NONE',  ( -3.491481338843133355E-15, 1.224646799147353207E-16, -1.000000000000000000 ) ) ;
#43 = ORIENTED_EDGE ( 'NONE', *, *, #290, .T. ) ;
#44 = CC_DESIGN_PERSON_AND_ORGANIZATION_ASSIGNMENT ( #252, #204, ( #223 ) ) ;
#45 = ADVANCED_FACE ( 'NONE', ( #278, #236 ), #10, .F. ) ;
#46 = FACE_BOUND ( 'NONE', #72, .T. ) ;
#47 = APPLICATION_PROTOCOL_DEFINITION ( 'international standard', 'config_control_design', 1994, #269 ) ;
#48 = DIRECTION ( 'NONE',  ( -3.491481338843133355E-15, 1.224646799147353207E-16, -1.000000000000000000 ) ) ;
#49 = CIRCLE ( 'NONE', #220, 1.188499999999995005 ) ;
#50 = EDGE_LOOP ( 'NONE', ( #259 ) ) ;
#51 = COORDINATED_UNIVERSAL_TIME_OFFSET ( 1, 0, .AHEAD. ) ;
#52 = EDGE_CURVE ( 'NONE', #297, #297, #126, .T. ) ;
#53 = APPROVAL_PERSON_ORGANIZATION ( #1, #162, #219 ) ;
#54 = FACE_OUTER_BOUND ( 'NONE', #275, .T. ) ;
#55 = CARTESIAN_POINT ( 'NONE',  ( 6.982962677686266711E-14, -2.602085213965210642E-15, 20.00000000000000000 ) ) ;
#56 = DIRECTION ( 'NONE',  ( -3.491481338843133355E-15, 1.224646799147353207E-16, -1.000000000000000000 ) ) ;
#57 = DIRECTION ( 'NONE',  ( 3.491481338843133355E-15, -1.224646799147353207E-16, 1.000000000000000000 ) ) ;
#58 = CONICAL_SURFACE ( 'NONE', #161, 1.188499999999993673, 0.5235987755982919323 ) ;
#59 = MANIFOLD_SOLID_BREP ( 'Corps-Déplacer/Copier1[1]', #30 ) ;
#60 = FACE_BOUND ( 'NONE', #133, .T. ) ;
#61 = APPROVAL ( #172, 'UNSPECIFIED' ) ;
#62 = DIRECTION ( 'NONE',  ( 4.275831445896958607E-31, 1.000000000000000000, 1.224646799147352961E-16 ) ) ;
#63 = APPROVAL_DATE_TIME ( #208, #38 ) ;
#64 = CC_DESIGN_APPROVAL ( #61, ( #107 ) ) ;
#65 = CARTESIAN_POINT ( 'NONE',  ( 1.735266225405037467E-13, -6.086494591762345225E-15, 49.70000000000000284 ) ) ;
#66 = EDGE_CURVE ( 'NONE', #173, #173, #163, .T. ) ;
#67 = AXIS2_PLACEMENT_3D ( 'NONE', #36, #266, #265 ) ;
#68 = CARTESIAN_POINT ( 'NONE',  ( 7.964810305682487044E-14, 1.499999999999994005, 22.81212337317416683 ) ) ;
#69 = VERTEX_POINT ( 'NONE', #108 ) ;
#70 = ORIENTED_EDGE ( 'NONE', *, *, #258, .F. ) ;
#71 = PERSON_AND_ORGANIZATION_ROLE ( 'design_supplier' ) ;
#72 = EDGE_LOOP ( 'NONE', ( #277 ) ) ;
#73 = EDGE_LOOP ( 'NONE', ( #184 ) ) ;
#74 = PERSON_AND_ORGANIZATION_ROLE ( 'classification_officer' ) ;
#75 = CC_DESIGN_APPROVAL ( #38, ( #223 ) ) ;
#76 = APPLICATION_CONTEXT ( 'configuration controlled 3d designs of mechanical parts and assemblies' ) ;
#77 = ADVANCED_FACE ( 'NONE', ( #60, #167 ), #34, .T. ) ;
#78 = EDGE_LOOP ( 'NONE', ( #119 ) ) ;
#79 = APPROVAL_PERSON_ORGANIZATION ( #86, #61, #131 ) ;
#80 = DIRECTION ( 'NONE',  ( -3.491481338843133355E-15, 1.224646799147353207E-16, -1.000000000000000000 ) ) ;
#81 = DIRECTION ( 'NONE',  ( 0.0000000000000000000, 1.000000000000000000, 0.0000000000000000000 ) ) ;
#82 = DIRECTION ( 'NONE',  ( 3.491481338843133355E-15, -1.224646799147353207E-16, 1.000000000000000000 ) ) ;
#83 = DIRECTION ( 'NONE',  ( 4.275831445896958607E-31, 1.000000000000000000, 1.224646799147353207E-16 ) ) ;
#84 = DIRECTION ( 'NONE',  ( -3.491481338843133355E-15, 1.224646799147353207E-16, -1.000000000000000000 ) ) ;
#85 = EDGE_CURVE ( 'NONE', #294, #294, #260, .T. ) ;
#86 = PERSON_AND_ORGANIZATION ( #174, #261 ) ;
#87 = LOCAL_TIME ( 7, 45, 12.00000000000000000, #298 ) ;
#88 = VERTEX_POINT ( 'NONE', #12 ) ;
#89 = AXIS2_PLACEMENT_3D ( 'NONE', #197, #84, #62 ) ;
#90 = COORDINATED_UNIVERSAL_TIME_OFFSET ( 1, 0, .AHEAD. ) ;
#91 = EDGE_CURVE ( 'NONE', #253, #253, #102, .T. ) ;
#92 = CARTESIAN_POINT ( 'NONE',  ( 1.745740669421566678E-13, 1.199999999999995515, 50.00000000000000000 ) ) ;
#93 = PERSON_AND_ORGANIZATION ( #174, #261 ) ;
#94 = ORIENTED_EDGE ( 'NONE', *, *, #22, .T. ) ;
#95 = DIRECTION ( 'NONE',  ( -3.491481338843133355E-15, 1.224646799147353207E-16, -1.000000000000000000 ) ) ;
#96 = AXIS2_PLACEMENT_3D ( 'NONE', #206, #233, #129 ) ;
#97 = EDGE_LOOP ( 'NONE', ( #141 ) ) ;
#98 = ADVANCED_FACE ( 'NONE', ( #289 ), #124, .F. ) ;
#99 = ORIENTED_EDGE ( 'NONE', *, *, #303, .T. ) ;
#100 = FACE_OUTER_BOUND ( 'NONE', #23, .T. ) ;
#101 = DATE_AND_TIME ( #142, #251 ) ;
#102 = CIRCLE ( 'NONE', #271, 1.188499999999995005 ) ;
#103 = CARTESIAN_POINT ( 'NONE',  ( 3.491481338843133355E-14, -1.224646799147353256E-15, 10.00000000000000000 ) ) ;
#104 = DIRECTION ( 'NONE',  ( 3.491481338843133355E-15, -1.224646799147353207E-16, 1.000000000000000000 ) ) ;
#105 = CARTESIAN_POINT ( 'NONE',  ( 0.0000000000000000000, 0.0000000000000000000, 0.0000000000000000000 ) ) ;
#106 = CYLINDRICAL_SURFACE ( 'NONE', #110, 1.034999999999999476 ) ;
#107 = PRODUCT_DEFINITION_FORMATION_WITH_SPECIFIED_SOURCE ( 'ANY', '', #175, .NOT_KNOWN. ) ;
#108 = CARTESIAN_POINT ( 'NONE',  ( 3.491481338843133355E-14, 1.188499999999993673, 10.00000000000000000 ) ) ;
#109 = CARTESIAN_POINT ( 'NONE',  ( 3.491481338843133355E-14, 8.912322508468031551E-33, 10.00000000000000000 ) ) ;
#110 = AXIS2_PLACEMENT_3D ( 'NONE', #105, #5, #83 ) ;
#111 = DIRECTION ( 'NONE',  ( -4.275831445896958607E-31, -1.000000000000000000, -1.224646799147353207E-16 ) ) ;
#112 = AXIS2_PLACEMENT_3D ( 'NONE', #8, #57, #33 ) ;
#113 = CALENDAR_DATE ( 2021, 30, 11 ) ;
#114 = EDGE_LOOP ( 'NONE', ( #257 ) ) ;
#115 = CC_DESIGN_DATE_AND_TIME_ASSIGNMENT ( #276, #293, ( #223 ) ) ;
#116 = FACE_OUTER_BOUND ( 'NONE', #180, .T. ) ;
#117 = APPROVAL_STATUS ( 'not_yet_approved' ) ;
#118 = ORIENTED_EDGE ( 'NONE', *, *, #85, .F. ) ;
#119 = ORIENTED_EDGE ( 'NONE', *, *, #136, .T. ) ;
#120 = ORIENTED_EDGE ( 'NONE', *, *, #52, .F. ) ;
#121 = CC_DESIGN_PERSON_AND_ORGANIZATION_ASSIGNMENT ( #93, #296, ( #107 ) ) ;
#122 = CARTESIAN_POINT ( 'NONE',  ( 8.728703347107829444E-16, -3.061616997868381785E-17, 0.2499999999999998890 ) ) ;
#123 = FACE_OUTER_BOUND ( 'NONE', #239, .T. ) ;
#124 = PLANE ( 'NONE',  #112 ) ;
#125 = DIRECTION ( 'NONE',  ( 0.0000000000000000000, 1.000000000000000000, 0.0000000000000000000 ) ) ;
#126 = CIRCLE ( 'NONE', #301, 1.065384493975580993 ) ;
#127 = FACE_OUTER_BOUND ( 'NONE', #50, .T. ) ;
#128 = CONICAL_SURFACE ( 'NONE', #282, 1.034999999999998810, 0.5235987755982913772 ) ;
#129 = DIRECTION ( 'NONE',  ( 1.000000000000000000, 0.0000000000000000000, 0.0000000000000000000 ) ) ;
#130 = DIRECTION ( 'NONE',  ( 0.0000000000000000000, 1.000000000000000000, 0.0000000000000000000 ) ) ;
#131 = APPROVAL_ROLE ( '' ) ;
#132 = VERTEX_POINT ( 'NONE', #200 ) ;
#133 = EDGE_LOOP ( 'NONE', ( #120 ) ) ;
#134 = DIRECTION ( 'NONE',  ( 0.0000000000000000000, 1.000000000000000000, 0.0000000000000000000 ) ) ;
#135 = PERSON_AND_ORGANIZATION ( #174, #261 ) ;
#136 = EDGE_CURVE ( 'NONE', #274, #274, #201, .T. ) ;
#137 = DIRECTION ( 'NONE',  ( 4.275831445896958607E-31, 1.000000000000000000, 1.224646799147353207E-16 ) ) ;
#138 = PRODUCT_RELATED_PRODUCT_CATEGORY ( 'detail', '', ( #175 ) ) ;
#139 = CIRCLE ( 'NONE', #26, 1.500000000000001554 ) ;
#140 = AXIS2_PLACEMENT_3D ( 'NONE', #55, #165, #267 ) ;
#141 = ORIENTED_EDGE ( 'NONE', *, *, #3, .T. ) ;
#142 = CALENDAR_DATE ( 2021, 30, 11 ) ;
#143 = CARTESIAN_POINT ( 'NONE',  ( 1.745740669421566678E-13, -6.123233995736766085E-15, 50.00000000000000000 ) ) ;
#144 = DIRECTION ( 'NONE',  ( -3.491481338843133355E-15, 1.224646799147353207E-16, -1.000000000000000000 ) ) ;
#145 = ADVANCED_FACE ( 'NONE', ( #32, #123 ), #58, .T. ) ;
#146 = FACE_OUTER_BOUND ( 'NONE', #178, .T. ) ;
#147 = CYLINDRICAL_SURFACE ( 'NONE', #89, 1.188499999999994339 ) ;
#148 = PRODUCT_DEFINITION_SHAPE ( 'NONE', 'NONE',  #223 ) ;
#149 = FACE_OUTER_BOUND ( 'NONE', #160, .T. ) ;
#150 = CARTESIAN_POINT ( 'NONE',  ( 0.0000000000000000000, 0.0000000000000000000, 0.0000000000000000000 ) ) ;
#151 = AXIS2_PLACEMENT_3D ( 'NONE', #244, #82, #228 ) ;
#152 = DIRECTION ( 'NONE',  ( 4.861413406110002433E-31, 1.000000000000000000, 1.368366225265683794E-16 ) ) ;
#153 = CC_DESIGN_SECURITY_CLASSIFICATION ( #237, ( #107 ) ) ;
#154 = APPROVAL_DATE_TIME ( #16, #61 ) ;
#155 = FACE_OUTER_BOUND ( 'NONE', #302, .T. ) ;
#156 = MANIFOLD_SOLID_BREP ( 'Corps-Déplacer/Copier1[2]', #196 ) ;
#157 = CARTESIAN_POINT ( 'NONE',  ( -6.357398390757160733E-31, 2.229875183215201965E-32, -1.820831267241891926E-16 ) ) ;
#158 = DIRECTION ( 'NONE',  ( 0.0000000000000000000, 1.000000000000000000, 0.0000000000000000000 ) ) ;
#159 = EDGE_LOOP ( 'NONE', ( #211 ) ) ;
#160 = EDGE_LOOP ( 'NONE', ( #234 ) ) ;
#161 = AXIS2_PLACEMENT_3D ( 'NONE', #122, #104, #247 ) ;
#162 = APPROVAL ( #190, 'UNSPECIFIED' ) ;
#163 = CIRCLE ( 'NONE', #185, 1.200000000000001732 ) ;
#164 = CC_DESIGN_APPROVAL ( #162, ( #237 ) ) ;
#165 = DIRECTION ( 'NONE',  ( -3.491481338843133355E-15, 1.224646799147353207E-16, -1.000000000000000000 ) ) ;
#166 = FACE_BOUND ( 'NONE', #78, .T. ) ;
#167 = FACE_OUTER_BOUND ( 'NONE', #159, .T. ) ;
#168 = DIRECTION ( 'NONE',  ( 0.0000000000000000000, 1.000000000000000000, 0.0000000000000000000 ) ) ;
#169 = UNCERTAINTY_MEASURE_WITH_UNIT (LENGTH_MEASURE( 1.000000000000000082E-05 ), #202, 'distance_accuracy_value', 'NONE');
#170 = DIRECTION ( 'NONE',  ( 0.0000000000000000000, -1.000000000000000000, 0.0000000000000000000 ) ) ;
#171 = CARTESIAN_POINT ( 'NONE',  ( 8.728703347107829444E-16, -3.061616997868381785E-17, 0.2499999999999998890 ) ) ;
#172 = APPROVAL_STATUS ( 'not_yet_approved' ) ;
#173 = VERTEX_POINT ( 'NONE', #92 ) ;
#174 = PERSON ( 'UNSPECIFIED', 'UNSPECIFIED', 'UNSPECIFIED', ('UNSPECIFIED'), ('UNSPECIFIED'), ('UNSPECIFIED') ) ;
#175 = PRODUCT ( '958068', '958068', '', ( #227 ) ) ;
#176 = PERSON_AND_ORGANIZATION ( #174, #261 ) ;
#177 = CARTESIAN_POINT ( 'NONE',  ( 3.491481338843133355E-14, 1.188499999999993673, 10.00000000000000000 ) ) ;
#178 = EDGE_LOOP ( 'NONE', ( #94 ) ) ;
#179 = APPROVAL_ROLE ( '' ) ;
#180 = EDGE_LOOP ( 'NONE', ( #214 ) ) ;
#181 = AXIS2_PLACEMENT_3D ( 'NONE', #143, #25, #134 ) ;
#182 = APPROVAL_PERSON_ORGANIZATION ( #135, #38, #179 ) ;
#183 = DIRECTION ( 'NONE',  ( 4.275831445896958607E-31, 1.000000000000000000, 1.224646799147353207E-16 ) ) ;
#184 = ORIENTED_EDGE ( 'NONE', *, *, #136, .F. ) ;
#185 = AXIS2_PLACEMENT_3D ( 'NONE', #9, #286, #125 ) ;
#186 = ORIENTED_EDGE ( 'NONE', *, *, #91, .T. ) ;
#187 = CC_DESIGN_PERSON_AND_ORGANIZATION_ASSIGNMENT ( #176, #74, ( #237 ) ) ;
#188 = FACE_OUTER_BOUND ( 'NONE', #2, .T. ) ;
#189 = LOCAL_TIME ( 7, 45, 12.00000000000000000, #229 ) ;
#190 = APPROVAL_STATUS ( 'not_yet_approved' ) ;
#191 = CIRCLE ( 'NONE', #4, 1.188499999999993673 ) ;
#192 = CARTESIAN_POINT ( 'NONE',  ( 3.491481338843133355E-14, -1.224646799147353256E-15, 10.00000000000000000 ) ) ;
#193 = ADVANCED_FACE ( 'NONE', ( #224, #268 ), #106, .T. ) ;
#194 = CYLINDRICAL_SURFACE ( 'NONE', #249, 1.499999999999999112 ) ;
#195 = CARTESIAN_POINT ( 'NONE',  ( 7.104220552055901835E-14, -2.491825135286219831E-15, 20.34729635533384595 ) ) ;
#196 = CLOSED_SHELL ( 'NONE', ( #280, #145, #205, #287 ) ) ;
#197 = CARTESIAN_POINT ( 'NONE',  ( 0.0000000000000000000, 0.0000000000000000000, 0.0000000000000000000 ) ) ;
#198 = VERTEX_POINT ( 'NONE', #292 ) ;
#199 = CALENDAR_DATE ( 2021, 30, 11 ) ;
#200 = CARTESIAN_POINT ( 'NONE',  ( 6.982962677686266711E-14, 1.034999999999997700, 20.00000000000000000 ) ) ;
#201 = CIRCLE ( 'NONE', #6, 1.034999999999998810 ) ;
#202 =( LENGTH_UNIT ( ) NAMED_UNIT ( * ) SI_UNIT ( .MILLI., .METRE. ) );
#203 = CARTESIAN_POINT ( 'NONE',  ( -1.892735826383162232E-31, 1.044162432702589349, -5.421010862427522170E-17 ) ) ;
#204 = PERSON_AND_ORGANIZATION_ROLE ( 'creator' ) ;
#205 = ADVANCED_FACE ( 'NONE', ( #188, #149 ), #147, .T. ) ;
#206 = CARTESIAN_POINT ( 'NONE',  ( 0.0000000000000000000, 0.0000000000000000000, 0.0000000000000000000 ) ) ;
#207 = PLANE ( 'NONE',  #240 ) ;
#208 = DATE_AND_TIME ( #113, #210 ) ;
#209 = CONICAL_SURFACE ( 'NONE', #181, 1.200000000000001732, 0.7853981633974453924 ) ;
#210 = LOCAL_TIME ( 7, 45, 12.00000000000000000, #90 ) ;
#211 = ORIENTED_EDGE ( 'NONE', *, *, #85, .T. ) ;
#212 = CC_DESIGN_PERSON_AND_ORGANIZATION_ASSIGNMENT ( #24, #40, ( #175 ) ) ;
#213 = COORDINATED_UNIVERSAL_TIME_OFFSET ( 1, 0, .AHEAD. ) ;
#214 = ORIENTED_EDGE ( 'NONE', *, *, #66, .F. ) ;
#215 = CC_DESIGN_PERSON_AND_ORGANIZATION_ASSIGNMENT ( #41, #71, ( #107 ) ) ;
#216 = EDGE_LOOP ( 'NONE', ( #186 ) ) ;
#217 = CARTESIAN_POINT ( 'NONE',  ( 7.964810305682487044E-14, -2.793679387071226666E-15, 22.81212337317416683 ) ) ;
#218 =( GEOMETRIC_REPRESENTATION_CONTEXT ( 3 ) GLOBAL_UNCERTAINTY_ASSIGNED_CONTEXT ( ( #169 ) ) GLOBAL_UNIT_ASSIGNED_CONTEXT ( ( #202, #235, #13 ) ) REPRESENTATION_CONTEXT ( 'NONE', 'WORKASPACE' ) );
#219 = APPROVAL_ROLE ( '' ) ;
#220 = AXIS2_PLACEMENT_3D ( 'NONE', #103, #39, #81 ) ;
#221 = FACE_OUTER_BOUND ( 'NONE', #232, .T. ) ;
#222 = DIRECTION ( 'NONE',  ( 3.491481338843133355E-15, -1.224646799147353207E-16, 1.000000000000000000 ) ) ;
#223 = PRODUCT_DEFINITION ( 'UNKNOWN', '', #107, #15 ) ;
#224 = FACE_OUTER_BOUND ( 'NONE', #73, .T. ) ;
#225 = DIRECTION ( 'NONE',  ( 4.275831445896958607E-31, 1.000000000000000000, 1.224646799147353454E-16 ) ) ;
#226 = ADVANCED_FACE ( 'NONE', ( #221, #100 ), #194, .T. ) ;
#227 = MECHANICAL_CONTEXT ( 'NONE', #76, 'mechanical' ) ;
#228 = DIRECTION ( 'NONE',  ( -4.275831445896958607E-31, -1.000000000000000000, -1.224646799147353207E-16 ) ) ;
#229 = COORDINATED_UNIVERSAL_TIME_OFFSET ( 1, 0, .AHEAD. ) ;
#230 = VERTEX_POINT ( 'NONE', #203 ) ;
#231 = CIRCLE ( 'NONE', #295, 1.044162432702589349 ) ;
#232 = EDGE_LOOP ( 'NONE', ( #118 ) ) ;
#233 = DIRECTION ( 'NONE',  ( 0.0000000000000000000, 0.0000000000000000000, 1.000000000000000000 ) ) ;
#234 = ORIENTED_EDGE ( 'NONE', *, *, #258, .T. ) ;
#235 =( NAMED_UNIT ( * ) PLANE_ANGLE_UNIT ( ) SI_UNIT ( $, .RADIAN. ) );
#236 = FACE_OUTER_BOUND ( 'NONE', #114, .T. ) ;
#237 = SECURITY_CLASSIFICATION ( '', '', #21 ) ;
#238 = AXIS2_PLACEMENT_3D ( 'NONE', #217, #222, #170 ) ;
#239 = EDGE_LOOP ( 'NONE', ( #99 ) ) ;
#240 = AXIS2_PLACEMENT_3D ( 'NONE', #300, #95, #183 ) ;
#241 = APPROVAL_DATE_TIME ( #285, #162 ) ;
#242 = ORIENTED_EDGE ( 'NONE', *, *, #303, .F. ) ;
#243 = DIRECTION ( 'NONE',  ( 0.0000000000000000000, 1.000000000000000000, 0.0000000000000000000 ) ) ;
#244 = CARTESIAN_POINT ( 'NONE',  ( -3.178699195378580366E-31, 1.114937591607600982E-32, -9.104156336209459628E-17 ) ) ;
#245 = DATE_TIME_ROLE ( 'classification_date' ) ;
#246 = DIRECTION ( 'NONE',  ( -3.491481338843133355E-15, 1.224646799147353207E-16, -1.000000000000000000 ) ) ;
#247 = DIRECTION ( 'NONE',  ( -4.861413406110002433E-31, -1.000000000000000000, -1.368366225265683794E-16 ) ) ;
#248 = DIRECTION ( 'NONE',  ( -3.491481338843133355E-15, 1.224646799147353207E-16, -1.000000000000000000 ) ) ;
#249 = AXIS2_PLACEMENT_3D ( 'NONE', #150, #248, #225 ) ;
#250 = CIRCLE ( 'NONE', #264, 1.035000000000000142 ) ;
#251 = LOCAL_TIME ( 7, 45, 12.00000000000000000, #51 ) ;
#252 = PERSON_AND_ORGANIZATION ( #174, #261 ) ;
#253 = VERTEX_POINT ( 'NONE', #177 ) ;
#254 = PLANE ( 'NONE',  #11 ) ;
#255 = CARTESIAN_POINT ( 'NONE',  ( 6.982962677686266711E-14, -2.449293598294706513E-15, 20.00000000000000000 ) ) ;
#256 = DIRECTION ( 'NONE',  ( -3.491481338843133355E-15, 1.224646799147353207E-16, -1.000000000000000000 ) ) ;
#257 = ORIENTED_EDGE ( 'NONE', *, *, #52, .T. ) ;
#258 = EDGE_CURVE ( 'NONE', #69, #69, #49, .T. ) ;
#259 = ORIENTED_EDGE ( 'NONE', *, *, #91, .F. ) ;
#260 = CIRCLE ( 'NONE', #67, 1.499999999999996669 ) ;
#261 = ORGANIZATION ( 'UNSPECIFIED', 'UNSPECIFIED', '' ) ;
#262 = ADVANCED_BREP_SHAPE_REPRESENTATION ( '958068', ( #59, #156, #96 ), #218 ) ;
#263 = ORIENTED_EDGE ( 'NONE', *, *, #3, .F. ) ;
#264 = AXIS2_PLACEMENT_3D ( 'NONE', #255, #48, #158 ) ;
#265 = DIRECTION ( 'NONE',  ( 0.0000000000000000000, 1.000000000000000000, 0.0000000000000000000 ) ) ;
#266 = DIRECTION ( 'NONE',  ( -3.491481338843133355E-15, 1.224646799147353207E-16, -1.000000000000000000 ) ) ;
#267 = DIRECTION ( 'NONE',  ( 4.275831445896958607E-31, 1.000000000000000000, 1.224646799147353207E-16 ) ) ;
#268 = FACE_OUTER_BOUND ( 'NONE', #97, .T. ) ;
#269 = APPLICATION_CONTEXT ( 'configuration controlled 3d designs of mechanical parts and assemblies' ) ;
#270 = DIRECTION ( 'NONE',  ( -3.491481338843133355E-15, 1.224646799147353207E-16, -1.000000000000000000 ) ) ;
#271 = AXIS2_PLACEMENT_3D ( 'NONE', #192, #246, #37 ) ;
#272 = CALENDAR_DATE ( 2021, 30, 11 ) ;
#273 = DIRECTION ( 'NONE',  ( 3.491481338843133355E-15, -1.224646799147353207E-16, 1.000000000000000000 ) ) ;
#274 = VERTEX_POINT ( 'NONE', #14 ) ;
#275 = EDGE_LOOP ( 'NONE', ( #20 ) ) ;
#276 = DATE_AND_TIME ( #199, #87 ) ;
#277 = ORIENTED_EDGE ( 'NONE', *, *, #66, .T. ) ;
#278 = FACE_OUTER_BOUND ( 'NONE', #29, .T. ) ;
#279 = ADVANCED_FACE ( 'NONE', ( #127, #166 ), #128, .T. ) ;
#280 = ADVANCED_FACE ( 'NONE', ( #146 ), #7, .F. ) ;
#281 = EDGE_LOOP ( 'NONE', ( #299 ) ) ;
#282 = AXIS2_PLACEMENT_3D ( 'NONE', #283, #80, #288 ) ;
#283 = CARTESIAN_POINT ( 'NONE',  ( 3.584309283006850656E-14, -1.257206458976207460E-15, 10.26586979896182150 ) ) ;
#284 = LOCAL_TIME ( 7, 45, 12.00000000000000000, #213 ) ;
#285 = DATE_AND_TIME ( #31, #284 ) ;
#286 = DIRECTION ( 'NONE',  ( -3.491481338843133355E-15, 1.224646799147353207E-16, -1.000000000000000000 ) ) ;
#287 = ADVANCED_FACE ( 'NONE', ( #155 ), #254, .T. ) ;
#288 = DIRECTION ( 'NONE',  ( 0.0000000000000000000, 1.000000000000000000, 0.0000000000000000000 ) ) ;
#289 = FACE_OUTER_BOUND ( 'NONE', #216, .T. ) ;
#290 = EDGE_CURVE ( 'NONE', #88, #88, #139, .T. ) ;
#291 = CARTESIAN_POINT ( 'NONE',  ( 3.584309283006850656E-14, -1.257206458976207460E-15, 10.26586979896182150 ) ) ;
#292 = CARTESIAN_POINT ( 'NONE',  ( 8.728703347107835360E-16, 1.188499999999993673, 0.2500000000000000555 ) ) ;
#293 = DATE_TIME_ROLE ( 'creation_date' ) ;
#294 = VERTEX_POINT ( 'NONE', #68 ) ;
#295 = AXIS2_PLACEMENT_3D ( 'NONE', #157, #256, #137 ) ;
#296 = PERSON_AND_ORGANIZATION_ROLE ( 'creator' ) ;
#297 = VERTEX_POINT ( 'NONE', #17 ) ;
#298 = COORDINATED_UNIVERSAL_TIME_OFFSET ( 1, 0, .AHEAD. ) ;
#299 = ORIENTED_EDGE ( 'NONE', *, *, #22, .F. ) ;
#300 = CARTESIAN_POINT ( 'NONE',  ( 1.745740669421566678E-13, 8.998558695971067645E-33, 50.00000000000000000 ) ) ;
#301 = AXIS2_PLACEMENT_3D ( 'NONE', #195, #144, #168 ) ;
#302 = EDGE_LOOP ( 'NONE', ( #70 ) ) ;
#303 = EDGE_CURVE ( 'NONE', #198, #198, #191, .T. ) ;
ENDSEC;
END-ISO-10303-21;
