ISO-10303-21;
HEADER;
FILE_DESCRIPTION (( 'STEP AP203' ),
    '1' );
FILE_NAME ('958040.step',
    '2023-09-27T05:49:11',
    ( '' ),
    ( '' ),
    'SwSTEP 2.0',
    'SolidWorks 2022',
    '' );
FILE_SCHEMA (( 'CONFIG_CONTROL_DESIGN' ));
ENDSEC;

DATA;
#1 = DIRECTION ( 'NONE',  ( 1.000000000000000000, 0.000000000000000000, -3.450625359085872984E-15 ) ) ;
#2 = EDGE_CURVE ( 'NONE', #321, #321, #115, .T. ) ;
#3 = DIRECTION ( 'NONE',  ( 1.000000000000000000, 0.000000000000000000, -3.491481338843132961E-15 ) ) ;
#4 = PERSON_AND_ORGANIZATION ( #334, #72 ) ;
#5 = AXIS2_PLACEMENT_3D ( 'NONE', #307, #157, #164 ) ;
#6 = PLANE ( 'NONE',  #181 ) ;
#7 = CARTESIAN_POINT ( 'NONE',  ( 2.400393420454632094E-15, 0.000000000000000000, 0.6874999999999936717 ) ) ;
#8 = APPROVAL_ROLE ( '' ) ;
#9 = APPROVAL ( #284, 'UNSPECIFIED' ) ;
#10 = VERTEX_POINT ( 'NONE', #66 ) ;
#11 = CARTESIAN_POINT ( 'NONE',  ( 4.000000000000253131, 0.000000000000000000, 74.19999999999998863 ) ) ;
#12 = ORIENTED_EDGE ( 'NONE', *, *, #143, .T. ) ;
#13 = DIRECTION ( 'NONE',  ( 1.000000000000000000, 0.000000000000000000, -3.515600205708450080E-15 ) ) ;
#14 = CARTESIAN_POINT ( 'NONE',  ( 8.030407079339205455E-14, 0.000000000000000000, 23.00000000000000000 ) ) ;
#15 = DIRECTION ( 'NONE',  ( 1.000000000000000000, 0.000000000000000000, -4.336808689942024047E-15 ) ) ;
#16 = CARTESIAN_POINT ( 'NONE',  ( 2.799074173711009195, 0.000000000000000000, 23.25881904510250919 ) ) ;
#17 = CYLINDRICAL_SURFACE ( 'NONE', #322, 3.950000000000000178 ) ;
#18 = DIRECTION ( 'NONE',  ( 1.000000000000000000, 0.000000000000000000, 0.000000000000000000 ) ) ;
#19 = DIRECTION ( 'NONE',  ( 1.000000000000000000, 0.000000000000000000, -3.515600205708450475E-15 ) ) ;
#20 = PERSON_AND_ORGANIZATION ( #334, #72 ) ;
#21 = AXIS2_PLACEMENT_3D ( 'NONE', #167, #91, #217 ) ;
#22 = ORIENTED_EDGE ( 'NONE', *, *, #206, .F. ) ;
#23 = CYLINDRICAL_SURFACE ( 'NONE', #166, 3.999999999999996447 ) ;
#24 = AXIS2_PLACEMENT_3D ( 'NONE', #381, #33, #110 ) ;
#25 = PRODUCT_DEFINITION ( 'UNKNOWN', '', #80, #45 ) ;
#26 = DIRECTION ( 'NONE',  ( 1.000000000000000000, 0.000000000000000000, -3.485915845712887694E-15 ) ) ;
#27 = DIRECTION ( 'NONE',  ( 1.000000000000000000, 0.000000000000000000, -5.019091431397635726E-15 ) ) ;
#28 = CARTESIAN_POINT ( 'NONE',  ( 1.047444401652940953E-14, 0.000000000000000000, 3.000000000000002665 ) ) ;
#29 = COORDINATED_UNIVERSAL_TIME_OFFSET ( 1, 0, .AHEAD. ) ;
#30 = AXIS2_PLACEMENT_3D ( 'NONE', #75, #291, #229 ) ;
#31 = DIRECTION ( 'NONE',  ( 3.491481338843133355E-15, -0.000000000000000000, 1.000000000000000000 ) ) ;
#32 = CARTESIAN_POINT ( 'NONE',  ( 5.891874759297768604E-15, 0.000000000000000000, 1.687499999999994671 ) ) ;
#33 = DIRECTION ( 'NONE',  ( -3.491481338843133355E-15, 0.000000000000000000, -1.000000000000000000 ) ) ;
#34 = ORIENTED_EDGE ( 'NONE', *, *, #161, .F. ) ;
#35 = VERTEX_POINT ( 'NONE', #173 ) ;
#36 = AXIS2_PLACEMENT_3D ( 'NONE', #174, #379, #71 ) ;
#37 = CC_DESIGN_DATE_AND_TIME_ASSIGNMENT ( #245, #366, ( #25 ) ) ;
#38 = ORIENTED_EDGE ( 'NONE', *, *, #211, .T. ) ;
#39 = FACE_OUTER_BOUND ( 'NONE', #210, .T. ) ;
#40 = EDGE_LOOP ( 'NONE', ( #294 ) ) ;
#41 = FACE_OUTER_BOUND ( 'NONE', #350, .T. ) ;
#42 = CARTESIAN_POINT ( 'NONE',  ( 2.836828587810024157E-15, 0.000000000000000000, 0.8124999999999937828 ) ) ;
#43 = AXIS2_PLACEMENT_3D ( 'NONE', #101, #292, #74 ) ;
#44 = EDGE_LOOP ( 'NONE', ( #382 ) ) ;
#45 = DESIGN_CONTEXT ( 'detailed design', #348, 'design' ) ;
#46 = EDGE_LOOP ( 'NONE', ( #289 ) ) ;
#47 = EDGE_CURVE ( 'NONE', #144, #144, #234, .T. ) ;
#48 = DIRECTION ( 'NONE',  ( 3.491481338843133355E-15, -0.000000000000000000, 1.000000000000000000 ) ) ;
#49 = PERSON_AND_ORGANIZATION_ROLE ( 'design_owner' ) ;
#50 = EDGE_CURVE ( 'NONE', #283, #283, #355, .T. ) ;
#51 = CALENDAR_DATE ( 2023, 27, 9 ) ;
#52 = AXIS2_PLACEMENT_3D ( 'NONE', #338, #193, #335 ) ;
#53 = EDGE_LOOP ( 'NONE', ( #271 ) ) ;
#54 = CARTESIAN_POINT ( 'NONE',  ( 3.083974596215566244, 0.000000000000000000, 2.812499999999984901 ) ) ;
#55 = DIRECTION ( 'NONE',  ( -1.000000000000000000, 0.000000000000000000, 3.485915845712887694E-15 ) ) ;
#56 = PRODUCT_RELATED_PRODUCT_CATEGORY ( 'detail', '', ( #238 ) ) ;
#57 = CALENDAR_DATE ( 2023, 27, 9 ) ;
#58 = AXIS2_PLACEMENT_3D ( 'NONE', #246, #221, #55 ) ;
#59 = LOCAL_TIME ( 7, 49, 11.00000000000000000, #99 ) ;
#60 = PLANE ( 'NONE',  #5 ) ;
#61 = FACE_OUTER_BOUND ( 'NONE', #184, .T. ) ;
#62 = PERSON_AND_ORGANIZATION_ROLE ( 'creator' ) ;
#63 = CARTESIAN_POINT ( 'NONE',  ( 2.356507196338782132E-32, 0.000000000000000000, 6.749304858434634072E-18 ) ) ;
#64 = AXIS2_PLACEMENT_3D ( 'NONE', #369, #306, #27 ) ;
#65 = FACE_BOUND ( 'NONE', #312, .T. ) ;
#66 = CARTESIAN_POINT ( 'NONE',  ( 3.083974596215560471, 0.000000000000000000, 1.312499999999983347 ) ) ;
#67 = ORIENTED_EDGE ( 'NONE', *, *, #47, .F. ) ;
#68 = EDGE_CURVE ( 'NONE', #314, #314, #262, .T. ) ;
#69 = DIRECTION ( 'NONE',  ( 3.491481338843133355E-15, -0.000000000000000000, 1.000000000000000000 ) ) ;
#70 = FACE_OUTER_BOUND ( 'NONE', #142, .T. ) ;
#71 = DIRECTION ( 'NONE',  ( 1.000000000000000000, 0.000000000000000000, -3.469446951953614189E-15 ) ) ;
#72 = ORGANIZATION ( 'UNSPECIFIED', 'UNSPECIFIED', '' ) ;
#73 = ORIENTED_EDGE ( 'NONE', *, *, #68, .T. ) ;
#74 = DIRECTION ( 'NONE',  ( 1.000000000000000000, 0.000000000000000000, -3.515600205708450080E-15 ) ) ;
#75 = CARTESIAN_POINT ( 'NONE',  ( 1.047444401652940953E-14, 0.000000000000000000, 3.000000000000002665 ) ) ;
#76 = EDGE_CURVE ( 'NONE', #349, #349, #274, .T. ) ;
#77 = ORIENTED_EDGE ( 'NONE', *, *, #189, .T. ) ;
#78 = CONICAL_SURFACE ( 'NONE', #390, 3.999999999999994227, 0.7853981633974418397 ) ;
#79 = DIRECTION ( 'NONE',  ( 3.491481338843133355E-15, -0.000000000000000000, 1.000000000000000000 ) ) ;
#80 = PRODUCT_DEFINITION_FORMATION_WITH_SPECIFIED_SOURCE ( 'ANY', '', #238, .NOT_KNOWN. ) ;
#81 = EDGE_LOOP ( 'NONE', ( #105 ) ) ;
#82 = DIRECTION ( 'NONE',  ( 1.000000000000000000, 0.000000000000000000, -3.718494119811687316E-15 ) ) ;
#83 = CARTESIAN_POINT ( 'NONE',  ( 2.765000000000077840, 0.000000000000000000, 22.99999999999998934 ) ) ;
#84 = PERSON_AND_ORGANIZATION ( #334, #72 ) ;
#85 = DIRECTION ( 'NONE',  ( 3.491481338843133355E-15, -0.000000000000000000, 1.000000000000000000 ) ) ;
#86 = CIRCLE ( 'NONE', #43, 3.083974596215556474 ) ;
#87 = CC_DESIGN_SECURITY_CLASSIFICATION ( #329, ( #80 ) ) ;
#88 = DIRECTION ( 'NONE',  ( 1.000000000000000000, 0.000000000000000000, -3.513364001978343273E-15 ) ) ;
#89 = CARTESIAN_POINT ( 'NONE',  ( 4.582569257231592807E-15, 0.000000000000000000, 1.312499999999994227 ) ) ;
#90 = CARTESIAN_POINT ( 'NONE',  ( 8.030407079339205455E-14, 0.000000000000000000, 23.00000000000000000 ) ) ;
#91 = DIRECTION ( 'NONE',  ( 3.491481338843133355E-15, -0.000000000000000000, 1.000000000000000000 ) ) ;
#92 = PERSON_AND_ORGANIZATION ( #334, #72 ) ;
#93 = CIRCLE ( 'NONE', #100, 3.999999999999994227 ) ;
#94 = CC_DESIGN_APPROVAL ( #9, ( #329 ) ) ;
#95 = ORIENTED_EDGE ( 'NONE', *, *, #161, .T. ) ;
#96 = FACE_BOUND ( 'NONE', #53, .T. ) ;
#97 = CC_DESIGN_PERSON_AND_ORGANIZATION_ASSIGNMENT ( #4, #62, ( #80 ) ) ;
#98 = DIRECTION ( 'NONE',  ( 3.491481338843133355E-15, -0.000000000000000000, 1.000000000000000000 ) ) ;
#99 = COORDINATED_UNIVERSAL_TIME_OFFSET ( 1, 0, .AHEAD. ) ;
#100 = AXIS2_PLACEMENT_3D ( 'NONE', #358, #330, #313 ) ;
#101 = CARTESIAN_POINT ( 'NONE',  ( 9.819791265496295996E-15, 0.000000000000000000, 2.812499999999995559 ) ) ;
#102 = APPROVAL_PERSON_ORGANIZATION ( #20, #304, #393 ) ;
#103 = COORDINATED_UNIVERSAL_TIME_OFFSET ( 1, 0, .AHEAD. ) ;
#104 = EDGE_LOOP ( 'NONE', ( #268 ) ) ;
#105 = ORIENTED_EDGE ( 'NONE', *, *, #244, .F. ) ;
#106 = FACE_OUTER_BOUND ( 'NONE', #256, .T. ) ;
#107 = CYLINDRICAL_SURFACE ( 'NONE', #305, 3.083974596215556030 ) ;
#108 = DIRECTION ( 'NONE',  ( 3.491481338843133355E-15, -0.000000000000000000, 1.000000000000000000 ) ) ;
#109 = ORIENTED_EDGE ( 'NONE', *, *, #377, .T. ) ;
#110 = DIRECTION ( 'NONE',  ( -1.000000000000000000, 0.000000000000000000, 3.491481338843133355E-15 ) ) ;
#111 = AXIS2_PLACEMENT_3D ( 'NONE', #372, #252, #88 ) ;
#112 = ORIENTED_EDGE ( 'NONE', *, *, #377, .F. ) ;
#113 = ADVANCED_FACE ( 'NONE', ( #356, #352 ), #17, .T. ) ;
#114 = EDGE_LOOP ( 'NONE', ( #77 ) ) ;
#115 = CIRCLE ( 'NONE', #339, 2.799074173710927926 ) ;
#116 = AXIS2_PLACEMENT_3D ( 'NONE', #90, #69, #170 ) ;
#117 = PERSON_AND_ORGANIZATION ( #334, #72 ) ;
#118 = DIRECTION ( 'NONE',  ( 3.491481338843133355E-15, -0.000000000000000000, 1.000000000000000000 ) ) ;
#119 = DIRECTION ( 'NONE',  ( 0.000000000000000000, 0.000000000000000000, 1.000000000000000000 ) ) ;
#120 = VERTEX_POINT ( 'NONE', #83 ) ;
#121 = VERTEX_POINT ( 'NONE', #365 ) ;
#122 = DIRECTION ( 'NONE',  ( 1.000000000000000000, 0.000000000000000000, -3.513364001978343273E-15 ) ) ;
#123 = AXIS2_PLACEMENT_3D ( 'NONE', #89, #79, #19 ) ;
#124 = DIRECTION ( 'NONE',  ( 1.000000000000000000, 0.000000000000000000, -3.491481338843133355E-15 ) ) ;
#125 = ADVANCED_FACE ( 'NONE', ( #139, #70 ), #188, .T. ) ;
#126 = DIRECTION ( 'NONE',  ( 3.491481338843133355E-15, -0.000000000000000000, 1.000000000000000000 ) ) ;
#127 = CALENDAR_DATE ( 2023, 27, 9 ) ;
#128 =( NAMED_UNIT ( * ) SI_UNIT ( $, .STERADIAN. ) SOLID_ANGLE_UNIT ( ) );
#129 = CIRCLE ( 'NONE', #203, 3.083974596215556474 ) ;
#130 = ADVANCED_FACE ( 'NONE', ( #185, #265 ), #300, .T. ) ;
#131 = FACE_BOUND ( 'NONE', #241, .T. ) ;
#132 = DIRECTION ( 'NONE',  ( 3.491481338843133355E-15, -0.000000000000000000, 1.000000000000000000 ) ) ;
#133 = PERSON_AND_ORGANIZATION_ROLE ( 'design_supplier' ) ;
#134 = PERSON_AND_ORGANIZATION ( #334, #72 ) ;
#135 = CC_DESIGN_PERSON_AND_ORGANIZATION_ASSIGNMENT ( #92, #133, ( #80 ) ) ;
#136 = EDGE_LOOP ( 'NONE', ( #22 ) ) ;
#137 = AXIS2_PLACEMENT_3D ( 'NONE', #385, #176, #237 ) ;
#138 = CARTESIAN_POINT ( 'NONE',  ( 2.759215069796391973, 0.000000000000000000, -9.633747926048855636E-15 ) ) ;
#139 = FACE_OUTER_BOUND ( 'NONE', #387, .T. ) ;
#140 = VERTEX_POINT ( 'NONE', #232 ) ;
#141 = ORIENTED_EDGE ( 'NONE', *, *, #337, .T. ) ;
#142 = EDGE_LOOP ( 'NONE', ( #141 ) ) ;
#143 = EDGE_CURVE ( 'NONE', #10, #10, #192, .T. ) ;
#144 = VERTEX_POINT ( 'NONE', #375 ) ;
#145 = TOROIDAL_SURFACE ( 'NONE', #364, 3.764999999999997460, 1.000000000000000000 ) ;
#146 = ADVANCED_FACE ( 'NONE', ( #147, #261 ), #297, .T. ) ;
#147 = FACE_OUTER_BOUND ( 'NONE', #367, .T. ) ;
#148 = ORIENTED_EDGE ( 'NONE', *, *, #50, .T. ) ;
#149 = CIRCLE ( 'NONE', #371, 3.950000000000000178 ) ;
#150 = DATE_AND_TIME ( #51, #254 ) ;
#151 = CARTESIAN_POINT ( 'NONE',  ( 2.618611004132350143E-13, 0.000000000000000000, 75.00000000000000000 ) ) ;
#152 = PERSON_AND_ORGANIZATION_ROLE ( 'creator' ) ;
#153 = ADVANCED_FACE ( 'NONE', ( #243, #391 ), #168, .T. ) ;
#154 = CARTESIAN_POINT ( 'NONE',  ( 2.618611004132350143E-13, 0.000000000000000000, 75.00000000000000000 ) ) ;
#155 = AXIS2_PLACEMENT_3D ( 'NONE', #151, #85, #395 ) ;
#156 = APPROVAL_PERSON_ORGANIZATION ( #196, #9, #165 ) ;
#157 = DIRECTION ( 'NONE',  ( -3.491481338843133355E-15, 0.000000000000000000, -1.000000000000000000 ) ) ;
#158 = APPLICATION_CONTEXT ( 'configuration controlled 3d designs of mechanical parts and assemblies' ) ;
#159 = DATE_AND_TIME ( #127, #251 ) ;
#160 = FACE_BOUND ( 'NONE', #259, .T. ) ;
#161 = EDGE_CURVE ( 'NONE', #285, #285, #93, .T. ) ;
#162 =( NAMED_UNIT ( * ) PLANE_ANGLE_UNIT ( ) SI_UNIT ( $, .RADIAN. ) );
#163 = EDGE_LOOP ( 'NONE', ( #12 ) ) ;
#164 = DIRECTION ( 'NONE',  ( -1.000000000000000000, 0.000000000000000000, 3.491481338843133355E-15 ) ) ;
#165 = APPROVAL_ROLE ( '' ) ;
#166 = AXIS2_PLACEMENT_3D ( 'NONE', #154, #273, #368 ) ;
#167 = CARTESIAN_POINT ( 'NONE',  ( 7.637615428719337649E-15, 0.000000000000000000, 2.187499999999995115 ) ) ;
#168 = CYLINDRICAL_SURFACE ( 'NONE', #64, 2.764999999999998792 ) ;
#169 = CARTESIAN_POINT ( 'NONE',  ( 3.200000000000257305, 0.000000000000000000, 75.00000000000000000 ) ) ;
#170 = DIRECTION ( 'NONE',  ( 1.000000000000000000, 0.000000000000000000, -3.764318573548228372E-15 ) ) ;
#171 = DIRECTION ( 'NONE',  ( 3.491481338843133355E-15, -0.000000000000000000, 1.000000000000000000 ) ) ;
#172 = AXIS2_PLACEMENT_3D ( 'NONE', #32, #236, #13 ) ;
#173 = CARTESIAN_POINT ( 'NONE',  ( 3.950000000000002842, 0.000000000000000000, 0.6874999999999799050 ) ) ;
#174 = CARTESIAN_POINT ( 'NONE',  ( 9.685625943347885441E-14, 0.000000000000000000, 27.74073524493508813 ) ) ;
#175 = PRODUCT_DEFINITION_SHAPE ( 'NONE', 'NONE',  #25 ) ;
#176 = DIRECTION ( 'NONE',  ( 3.491481338843133355E-15, -0.000000000000000000, 1.000000000000000000 ) ) ;
#177 = ADVANCED_FACE ( 'NONE', ( #370 ), #6, .F. ) ;
#178 = FACE_OUTER_BOUND ( 'NONE', #326, .T. ) ;
#179 = CARTESIAN_POINT ( 'NONE',  ( 2.618611004132350648E-13, 0.000000000000000000, 75.00000000000001421 ) ) ;
#180 = ORIENTED_EDGE ( 'NONE', *, *, #2, .F. ) ;
#181 = AXIS2_PLACEMENT_3D ( 'NONE', #63, #98, #124 ) ;
#182 = ORIENTED_EDGE ( 'NONE', *, *, #244, .T. ) ;
#183 = ORIENTED_EDGE ( 'NONE', *, *, #68, .F. ) ;
#184 = EDGE_LOOP ( 'NONE', ( #109 ) ) ;
#185 = FACE_OUTER_BOUND ( 'NONE', #253, .T. ) ;
#186 = AXIS2_PLACEMENT_3D ( 'NONE', #179, #199, #15 ) ;
#187 = CARTESIAN_POINT ( 'NONE',  ( 3.950000000000008171, 0.000000000000000000, 2.312499999999981348 ) ) ;
#188 = CYLINDRICAL_SURFACE ( 'NONE', #155, 3.083974596215556474 ) ;
#189 = EDGE_CURVE ( 'NONE', #35, #35, #149, .T. ) ;
#190 = VERTEX_POINT ( 'NONE', #267 ) ;
#191 = CALENDAR_DATE ( 2023, 27, 9 ) ;
#192 = CIRCLE ( 'NONE', #123, 3.083974596215556030 ) ;
#193 = DIRECTION ( 'NONE',  ( -3.491481338843133355E-15, 0.000000000000000000, -1.000000000000000000 ) ) ;
#194 = FACE_OUTER_BOUND ( 'NONE', #44, .T. ) ;
#195 = PERSON_AND_ORGANIZATION_ROLE ( 'classification_officer' ) ;
#196 = PERSON_AND_ORGANIZATION ( #334, #72 ) ;
#197 = ADVANCED_FACE ( 'NONE', ( #194 ), #60, .F. ) ;
#198 = DIRECTION ( 'NONE',  ( 3.491481338843133355E-15, -0.000000000000000000, 1.000000000000000000 ) ) ;
#199 = DIRECTION ( 'NONE',  ( 3.491481338843133355E-15, -0.000000000000000000, 1.000000000000000000 ) ) ;
#200 = DIRECTION ( 'NONE',  ( 1.000000000000000000, 0.000000000000000000, -4.499968263306816513E-15 ) ) ;
#201 = ORIENTED_EDGE ( 'NONE', *, *, #206, .T. ) ;
#202 = ORIENTED_EDGE ( 'NONE', *, *, #2, .T. ) ;
#203 = AXIS2_PLACEMENT_3D ( 'NONE', #223, #126, #309 ) ;
#204 = CC_DESIGN_APPROVAL ( #304, ( #25 ) ) ;
#205 = CARTESIAN_POINT ( 'NONE',  ( 3.950000000000008171, 0.000000000000000000, 2.187499999999981348 ) ) ;
#206 = EDGE_CURVE ( 'NONE', #140, #140, #129, .T. ) ;
#207 = CARTESIAN_POINT ( 'NONE',  ( 2.618611004132350143E-13, 0.000000000000000000, 75.00000000000000000 ) ) ;
#208 = DIRECTION ( 'NONE',  ( 3.491481338843133355E-15, -0.000000000000000000, 1.000000000000000000 ) ) ;
#209 = EDGE_LOOP ( 'NONE', ( #183 ) ) ;
#210 = EDGE_LOOP ( 'NONE', ( #95 ) ) ;
#211 = EDGE_CURVE ( 'NONE', #354, #354, #376, .T. ) ;
#212 = AXIS2_PLACEMENT_3D ( 'NONE', #278, #343, #3 ) ;
#213 = ORIENTED_EDGE ( 'NONE', *, *, #211, .F. ) ;
#214 = COORDINATED_UNIVERSAL_TIME_OFFSET ( 1, 0, .AHEAD. ) ;
#215 = CIRCLE ( 'NONE', #346, 2.765000000000000124 ) ;
#216 = PERSON_AND_ORGANIZATION ( #334, #72 ) ;
#217 = DIRECTION ( 'NONE',  ( 1.000000000000000000, 0.000000000000000000, -3.513364001978343273E-15 ) ) ;
#218 = CIRCLE ( 'NONE', #36, 4.000000000000000000 ) ;
#219 = AXIS2_PLACEMENT_3D ( 'NONE', #299, #119, #18 ) ;
#220 =( LENGTH_UNIT ( ) NAMED_UNIT ( * ) SI_UNIT ( .MILLI., .METRE. ) );
#221 = DIRECTION ( 'NONE',  ( -3.491481338843133355E-15, 0.000000000000000000, -1.000000000000000000 ) ) ;
#222 = SHAPE_DEFINITION_REPRESENTATION ( #175, #277 ) ;
#223 = CARTESIAN_POINT ( 'NONE',  ( 5.891874759297768604E-15, 0.000000000000000000, 1.687499999999994671 ) ) ;
#224 = CARTESIAN_POINT ( 'NONE',  ( 3.083974596215566688, 0.000000000000000000, 2.999999999999992006 ) ) ;
#225 = CC_DESIGN_PERSON_AND_ORGANIZATION_ASSIGNMENT ( #134, #195, ( #329 ) ) ;
#226 = CONICAL_SURFACE ( 'NONE', #58, 3.950000000000000178, 1.047197551196600296 ) ;
#227 = CARTESIAN_POINT ( 'NONE',  ( 2.590679153421605076E-13, 0.000000000000000000, 74.20000000000000284 ) ) ;
#228 = APPROVAL_STATUS ( 'not_yet_approved' ) ;
#229 = DIRECTION ( 'NONE',  ( 1.000000000000000000, 0.000000000000000000, -3.515600205708450080E-15 ) ) ;
#230 = ORIENTED_EDGE ( 'NONE', *, *, #311, .T. ) ;
#231 = FACE_BOUND ( 'NONE', #81, .T. ) ;
#232 = CARTESIAN_POINT ( 'NONE',  ( 3.083974596215562247, 0.000000000000000000, 1.687499999999983791 ) ) ;
#233 = DIRECTION ( 'NONE',  ( 1.000000000000000000, 0.000000000000000000, -3.485915845712887694E-15 ) ) ;
#234 = CIRCLE ( 'NONE', #384, 3.950000000000000178 ) ;
#235 = CONICAL_SURFACE ( 'NONE', #212, 2.759215069796391973, 1.047197551196603627 ) ;
#236 = DIRECTION ( 'NONE',  ( 3.491481338843133355E-15, -0.000000000000000000, 1.000000000000000000 ) ) ;
#237 = DIRECTION ( 'NONE',  ( 1.000000000000000000, 0.000000000000000000, -3.491481338843132961E-15 ) ) ;
#238 = PRODUCT ( '958040', '958040', '', ( #388 ) ) ;
#239 = DIRECTION ( 'NONE',  ( 1.000000000000000000, 0.000000000000000000, -3.718494119811687316E-15 ) ) ;
#240 = CC_DESIGN_PERSON_AND_ORGANIZATION_ASSIGNMENT ( #84, #152, ( #25 ) ) ;
#241 = EDGE_LOOP ( 'NONE', ( #328 ) ) ;
#242 = CC_DESIGN_APPROVAL ( #383, ( #80 ) ) ;
#243 = FACE_OUTER_BOUND ( 'NONE', #46, .T. ) ;
#244 = EDGE_CURVE ( 'NONE', #190, #190, #215, .T. ) ;
#245 = DATE_AND_TIME ( #191, #282 ) ;
#246 = CARTESIAN_POINT ( 'NONE',  ( 2.836828587810024157E-15, 0.000000000000000000, 0.8124999999999937828 ) ) ;
#247 = CC_DESIGN_DATE_AND_TIME_ASSIGNMENT ( #159, #248, ( #329 ) ) ;
#248 = DATE_TIME_ROLE ( 'classification_date' ) ;
#249 = CLOSED_SHELL ( 'NONE', ( #177, #266, #130, #295, #361, #331, #113, #260, #125, #317, #153, #394, #146, #296, #342, #197 ) ) ;
#250 = CONICAL_SURFACE ( 'NONE', #52, 3.950000000000000178, 1.047197551196600074 ) ;
#251 = LOCAL_TIME ( 7, 49, 11.00000000000000000, #29 ) ;
#252 = DIRECTION ( 'NONE',  ( 3.491481338843133355E-15, -0.000000000000000000, 1.000000000000000000 ) ) ;
#253 = EDGE_LOOP ( 'NONE', ( #67 ) ) ;
#254 = LOCAL_TIME ( 7, 49, 11.00000000000000000, #214 ) ;
#255 = FACE_OUTER_BOUND ( 'NONE', #353, .T. ) ;
#256 = EDGE_LOOP ( 'NONE', ( #213 ) ) ;
#257 = CARTESIAN_POINT ( 'NONE',  ( 8.120773265950471193E-14, 0.000000000000000000, 23.25881904510251985 ) ) ;
#258 = ORIENTED_EDGE ( 'NONE', *, *, #47, .T. ) ;
#259 = EDGE_LOOP ( 'NONE', ( #73 ) ) ;
#260 = ADVANCED_FACE ( 'NONE', ( #131, #341 ), #250, .T. ) ;
#261 = FACE_BOUND ( 'NONE', #325, .T. ) ;
#262 = CIRCLE ( 'NONE', #137, 2.759215069796391973 ) ;
#263 = LOCAL_TIME ( 7, 49, 11.00000000000000000, #103 ) ;
#264 = APPROVAL_DATE_TIME ( #150, #304 ) ;
#265 = FACE_OUTER_BOUND ( 'NONE', #114, .T. ) ;
#266 = ADVANCED_FACE ( 'NONE', ( #275, #160 ), #235, .T. ) ;
#267 = CARTESIAN_POINT ( 'NONE',  ( 2.765000000000010338, 0.000000000000000000, 2.999999999999993339 ) ) ;
#268 = ORIENTED_EDGE ( 'NONE', *, *, #189, .F. ) ;
#269 = COORDINATED_UNIVERSAL_TIME_OFFSET ( 1, 0, .AHEAD. ) ;
#270 = ORIENTED_EDGE ( 'NONE', *, *, #272, .F. ) ;
#271 = ORIENTED_EDGE ( 'NONE', *, *, #143, .F. ) ;
#272 = EDGE_CURVE ( 'NONE', #392, #392, #281, .T. ) ;
#273 = DIRECTION ( 'NONE',  ( 3.491481338843133355E-15, -0.000000000000000000, 1.000000000000000000 ) ) ;
#274 = CIRCLE ( 'NONE', #186, 3.199999999999995293 ) ;
#275 = FACE_OUTER_BOUND ( 'NONE', #104, .T. ) ;
#276 = DATE_AND_TIME ( #57, #263 ) ;
#277 = ADVANCED_BREP_SHAPE_REPRESENTATION ( '958040', ( #363, #219 ), #386 ) ;
#278 = CARTESIAN_POINT ( 'NONE',  ( 0.000000000000000000, 0.000000000000000000, 0.000000000000000000 ) ) ;
#279 = APPROVAL_DATE_TIME ( #310, #383 ) ;
#280 = UNCERTAINTY_MEASURE_WITH_UNIT (LENGTH_MEASURE( 1.000000000000000082E-05 ), #220, 'distance_accuracy_value', 'NONE');
#281 = CIRCLE ( 'NONE', #111, 3.950000000000000178 ) ;
#282 = LOCAL_TIME ( 7, 49, 11.00000000000000000, #269 ) ;
#283 = VERTEX_POINT ( 'NONE', #224 ) ;
#284 = APPROVAL_STATUS ( 'not_yet_approved' ) ;
#285 = VERTEX_POINT ( 'NONE', #11 ) ;
#286 = CIRCLE ( 'NONE', #116, 2.764999999999997460 ) ;
#287 = DIRECTION ( 'NONE',  ( 1.000000000000000000, 0.000000000000000000, -3.513364001978343273E-15 ) ) ;
#288 = DIRECTION ( 'NONE',  ( -3.491481338843133355E-15, 0.000000000000000000, -1.000000000000000000 ) ) ;
#289 = ORIENTED_EDGE ( 'NONE', *, *, #311, .F. ) ;
#290 = DIRECTION ( 'NONE',  ( -1.000000000000000000, 0.000000000000000000, 3.469446951953619316E-15 ) ) ;
#291 = DIRECTION ( 'NONE',  ( 3.491481338843133355E-15, -0.000000000000000000, 1.000000000000000000 ) ) ;
#292 = DIRECTION ( 'NONE',  ( 3.491481338843133355E-15, -0.000000000000000000, 1.000000000000000000 ) ) ;
#293 = EDGE_LOOP ( 'NONE', ( #301 ) ) ;
#294 = ORIENTED_EDGE ( 'NONE', *, *, #76, .F. ) ;
#295 = ADVANCED_FACE ( 'NONE', ( #96, #373 ), #226, .T. ) ;
#296 = ADVANCED_FACE ( 'NONE', ( #302, #61 ), #23, .T. ) ;
#297 = CONICAL_SURFACE ( 'NONE', #360, 2.799074173710927926, 0.2617993877991429130 ) ;
#298 = APPROVAL_PERSON_ORGANIZATION ( #216, #383, #8 ) ;
#299 = CARTESIAN_POINT ( 'NONE',  ( 0.000000000000000000, 0.000000000000000000, 0.000000000000000000 ) ) ;
#300 = CYLINDRICAL_SURFACE ( 'NONE', #362, 3.950000000000000178 ) ;
#301 = ORIENTED_EDGE ( 'NONE', *, *, #272, .T. ) ;
#302 = FACE_OUTER_BOUND ( 'NONE', #308, .T. ) ;
#303 = CARTESIAN_POINT ( 'NONE',  ( 2.618611004132350143E-13, 0.000000000000000000, 75.00000000000000000 ) ) ;
#304 = APPROVAL ( #333, 'UNSPECIFIED' ) ;
#305 = AXIS2_PLACEMENT_3D ( 'NONE', #324, #208, #200 ) ;
#306 = DIRECTION ( 'NONE',  ( 3.491481338843133355E-15, -0.000000000000000000, 1.000000000000000000 ) ) ;
#307 = CARTESIAN_POINT ( 'NONE',  ( 2.618611004132350648E-13, 3.199999999999995293, 75.00000000000001421 ) ) ;
#308 = EDGE_LOOP ( 'NONE', ( #34 ) ) ;
#309 = DIRECTION ( 'NONE',  ( 1.000000000000000000, 0.000000000000000000, -3.515600205708450080E-15 ) ) ;
#310 = DATE_AND_TIME ( #315, #59 ) ;
#311 = EDGE_CURVE ( 'NONE', #120, #120, #286, .T. ) ;
#312 = EDGE_LOOP ( 'NONE', ( #201 ) ) ;
#313 = DIRECTION ( 'NONE',  ( 1.000000000000000000, 0.000000000000000000, -3.469446951953619316E-15 ) ) ;
#314 = VERTEX_POINT ( 'NONE', #138 ) ;
#315 = CALENDAR_DATE ( 2023, 27, 9 ) ;
#316 = APPLICATION_PROTOCOL_DEFINITION ( 'international standard', 'config_control_design', 1994, #158 ) ;
#317 = ADVANCED_FACE ( 'NONE', ( #231, #255 ), #344, .F. ) ;
#318 = FACE_BOUND ( 'NONE', #40, .T. ) ;
#319 = DIRECTION ( 'NONE',  ( 3.491481338843133355E-15, -0.000000000000000000, 1.000000000000000000 ) ) ;
#320 = EDGE_LOOP ( 'NONE', ( #270 ) ) ;
#321 = VERTEX_POINT ( 'NONE', #16 ) ;
#322 = AXIS2_PLACEMENT_3D ( 'NONE', #207, #319, #287 ) ;
#323 = DIRECTION ( 'NONE',  ( 1.000000000000000000, 0.000000000000000000, -3.491481338843133355E-15 ) ) ;
#324 = CARTESIAN_POINT ( 'NONE',  ( 2.618611004132350143E-13, 0.000000000000000000, 75.00000000000000000 ) ) ;
#325 = EDGE_LOOP ( 'NONE', ( #202 ) ) ;
#326 = EDGE_LOOP ( 'NONE', ( #230 ) ) ;
#327 = EDGE_LOOP ( 'NONE', ( #182 ) ) ;
#328 = ORIENTED_EDGE ( 'NONE', *, *, #337, .F. ) ;
#329 = SECURITY_CLASSIFICATION ( '', '', #345 ) ;
#330 = DIRECTION ( 'NONE',  ( 3.491481338843133355E-15, -0.000000000000000000, 1.000000000000000000 ) ) ;
#331 = ADVANCED_FACE ( 'NONE', ( #106, #65 ), #340, .T. ) ;
#332 = VERTEX_POINT ( 'NONE', #54 ) ;
#333 = APPROVAL_STATUS ( 'not_yet_approved' ) ;
#334 = PERSON ( 'UNSPECIFIED', 'UNSPECIFIED', 'UNSPECIFIED', ('UNSPECIFIED'), ('UNSPECIFIED'), ('UNSPECIFIED') ) ;
#335 = DIRECTION ( 'NONE',  ( -1.000000000000000000, 0.000000000000000000, 3.513364001978343273E-15 ) ) ;
#336 = APPLICATION_PROTOCOL_DEFINITION ( 'international standard', 'config_control_design', 1994, #348 ) ;
#337 = EDGE_CURVE ( 'NONE', #332, #332, #86, .T. ) ;
#338 = CARTESIAN_POINT ( 'NONE',  ( 8.074050596074727740E-15, 0.000000000000000000, 2.312499999999995115 ) ) ;
#339 = AXIS2_PLACEMENT_3D ( 'NONE', #257, #108, #239 ) ;
#340 = CONICAL_SURFACE ( 'NONE', #172, 3.083974596215556474, 1.047197551196600074 ) ;
#341 = FACE_OUTER_BOUND ( 'NONE', #293, .T. ) ;
#342 = ADVANCED_FACE ( 'NONE', ( #318, #39 ), #78, .T. ) ;
#343 = DIRECTION ( 'NONE',  ( 3.491481338843133355E-15, -0.000000000000000000, 1.000000000000000000 ) ) ;
#344 = PLANE ( 'NONE',  #24 ) ;
#345 = SECURITY_CLASSIFICATION_LEVEL ( 'unclassified' ) ;
#346 = AXIS2_PLACEMENT_3D ( 'NONE', #28, #132, #1 ) ;
#347 = CC_DESIGN_PERSON_AND_ORGANIZATION_ASSIGNMENT ( #117, #49, ( #238 ) ) ;
#348 = APPLICATION_CONTEXT ( 'configuration controlled 3d designs of mechanical parts and assemblies' ) ;
#349 = VERTEX_POINT ( 'NONE', #169 ) ;
#350 = EDGE_LOOP ( 'NONE', ( #180 ) ) ;
#351 = FACE_OUTER_BOUND ( 'NONE', #163, .T. ) ;
#352 = FACE_OUTER_BOUND ( 'NONE', #380, .T. ) ;
#353 = EDGE_LOOP ( 'NONE', ( #148 ) ) ;
#354 = VERTEX_POINT ( 'NONE', #205 ) ;
#355 = CIRCLE ( 'NONE', #30, 3.083974596215556474 ) ;
#356 = FACE_OUTER_BOUND ( 'NONE', #320, .T. ) ;
#357 = FACE_OUTER_BOUND ( 'NONE', #136, .T. ) ;
#358 = CARTESIAN_POINT ( 'NONE',  ( 2.590679153421605076E-13, 0.000000000000000000, 74.20000000000000284 ) ) ;
#359 = EDGE_LOOP ( 'NONE', ( #258 ) ) ;
#360 = AXIS2_PLACEMENT_3D ( 'NONE', #389, #118, #82 ) ;
#361 = ADVANCED_FACE ( 'NONE', ( #357, #351 ), #107, .T. ) ;
#362 = AXIS2_PLACEMENT_3D ( 'NONE', #303, #48, #122 ) ;
#363 = MANIFOLD_SOLID_BREP ( 'Corps-Déplacer/Copier1', #249 ) ;
#364 = AXIS2_PLACEMENT_3D ( 'NONE', #14, #198, #323 ) ;
#365 = CARTESIAN_POINT ( 'NONE',  ( 4.000000000000096811, 0.000000000000000000, 27.74073524493507392 ) ) ;
#366 = DATE_TIME_ROLE ( 'creation_date' ) ;
#367 = EDGE_LOOP ( 'NONE', ( #112 ) ) ;
#368 = DIRECTION ( 'NONE',  ( 1.000000000000000000, 0.000000000000000000, -3.469446951953617344E-15 ) ) ;
#369 = CARTESIAN_POINT ( 'NONE',  ( 2.618611004132350143E-13, 0.000000000000000000, 75.00000000000000000 ) ) ;
#370 = FACE_OUTER_BOUND ( 'NONE', #209, .T. ) ;
#371 = AXIS2_PLACEMENT_3D ( 'NONE', #7, #31, #26 ) ;
#372 = CARTESIAN_POINT ( 'NONE',  ( 8.074050596074727740E-15, 0.000000000000000000, 2.312499999999995115 ) ) ;
#373 = FACE_OUTER_BOUND ( 'NONE', #359, .T. ) ;
#374 = APPROVAL_DATE_TIME ( #276, #9 ) ;
#375 = CARTESIAN_POINT ( 'NONE',  ( 3.950000000000002842, 0.000000000000000000, 0.8124999999999800160 ) ) ;
#376 = CIRCLE ( 'NONE', #21, 3.950000000000000178 ) ;
#377 = EDGE_CURVE ( 'NONE', #121, #121, #218, .T. ) ;
#378 = ORIENTED_EDGE ( 'NONE', *, *, #50, .F. ) ;
#379 = DIRECTION ( 'NONE',  ( 3.491481338843133355E-15, -0.000000000000000000, 1.000000000000000000 ) ) ;
#380 = EDGE_LOOP ( 'NONE', ( #38 ) ) ;
#381 = CARTESIAN_POINT ( 'NONE',  ( 1.047444401652940007E-14, 3.083974596215556474, 3.000000000000000000 ) ) ;
#382 = ORIENTED_EDGE ( 'NONE', *, *, #76, .T. ) ;
#383 = APPROVAL ( #228, 'UNSPECIFIED' ) ;
#384 = AXIS2_PLACEMENT_3D ( 'NONE', #42, #171, #233 ) ;
#385 = CARTESIAN_POINT ( 'NONE',  ( 0.000000000000000000, 0.000000000000000000, 0.000000000000000000 ) ) ;
#386 =( GEOMETRIC_REPRESENTATION_CONTEXT ( 3 ) GLOBAL_UNCERTAINTY_ASSIGNED_CONTEXT ( ( #280 ) ) GLOBAL_UNIT_ASSIGNED_CONTEXT ( ( #220, #162, #128 ) ) REPRESENTATION_CONTEXT ( 'NONE', 'WORKASPACE' ) );
#387 = EDGE_LOOP ( 'NONE', ( #378 ) ) ;
#388 = MECHANICAL_CONTEXT ( 'NONE', #158, 'mechanical' ) ;
#389 = CARTESIAN_POINT ( 'NONE',  ( 8.120773265950471193E-14, 0.000000000000000000, 23.25881904510251985 ) ) ;
#390 = AXIS2_PLACEMENT_3D ( 'NONE', #227, #288, #290 ) ;
#391 = FACE_OUTER_BOUND ( 'NONE', #327, .T. ) ;
#392 = VERTEX_POINT ( 'NONE', #187 ) ;
#393 = APPROVAL_ROLE ( '' ) ;
#394 = ADVANCED_FACE ( 'NONE', ( #41, #178 ), #145, .F. ) ;
#395 = DIRECTION ( 'NONE',  ( 1.000000000000000000, 0.000000000000000000, -4.499968263306815724E-15 ) ) ;
ENDSEC;
END-ISO-10303-21;
