ISO-10303-21;
HEADER;
FILE_DESCRIPTION (( 'STEP AP203' ),
    '1' );
FILE_NAME ('958039.step',
    '2023-09-27T05:49:10',
    ( '' ),
    ( '' ),
    'SwSTEP 2.0',
    'SolidWorks 2022',
    '' );
FILE_SCHEMA (( 'CONFIG_CONTROL_DESIGN' ));
ENDSEC;

DATA;
#1 = CARTESIAN_POINT ( 'NONE',  ( 8.728703347107831810E-15, 2.533312163512963622, 2.499999999999999556 ) ) ;
#2 = AXIS2_PLACEMENT_3D ( 'NONE', #269, #384, #112 ) ;
#3 = PERSON_AND_ORGANIZATION ( #116, #75 ) ;
#4 = CARTESIAN_POINT ( 'NONE',  ( 8.728703347107841277E-15, 0.000000000000000000, 2.500000000000002220 ) ) ;
#5 = COORDINATED_UNIVERSAL_TIME_OFFSET ( 1, 0, .AHEAD. ) ;
#6 = APPROVAL ( #67, 'UNSPECIFIED' ) ;
#7 = CARTESIAN_POINT ( 'NONE',  ( 2.299074173710993207, 0.000000000000000000, 18.65881904510251132 ) ) ;
#8 = FACE_OUTER_BOUND ( 'NONE', #84, .T. ) ;
#9 = PERSON_AND_ORGANIZATION_ROLE ( 'classification_officer' ) ;
#10 = AXIS2_PLACEMENT_3D ( 'NONE', #160, #129, #334 ) ;
#11 = ADVANCED_FACE ( 'NONE', ( #239, #391 ), #227, .T. ) ;
#12 = EDGE_LOOP ( 'NONE', ( #261 ) ) ;
#13 = CIRCLE ( 'NONE', #193, 3.254999999999999893 ) ;
#14 = CARTESIAN_POINT ( 'NONE',  ( 2.364023823175020197E-15, 0.000000000000000000, 0.6770833333333281523 ) ) ;
#15 = EDGE_LOOP ( 'NONE', ( #265 ) ) ;
#16 = ADVANCED_FACE ( 'NONE', ( #18 ), #176, .F. ) ;
#17 = DIRECTION ( 'NONE',  ( 3.491481338843133355E-15, -0.000000000000000000, 1.000000000000000000 ) ) ;
#18 = FACE_OUTER_BOUND ( 'NONE', #204, .T. ) ;
#19 = ORIENTED_EDGE ( 'NONE', *, *, #134, .F. ) ;
#20 = VERTEX_POINT ( 'NONE', #171 ) ;
#21 = FACE_OUTER_BOUND ( 'NONE', #50, .T. ) ;
#22 = CARTESIAN_POINT ( 'NONE',  ( 6.424325663471365374E-14, 0.000000000000000000, 18.39999999999999858 ) ) ;
#23 = AXIS2_PLACEMENT_3D ( 'NONE', #357, #300, #51 ) ;
#24 = FACE_OUTER_BOUND ( 'NONE', #324, .T. ) ;
#25 = EDGE_LOOP ( 'NONE', ( #207 ) ) ;
#26 = EDGE_CURVE ( 'NONE', #94, #94, #255, .T. ) ;
#27 = DIRECTION ( 'NONE',  ( 1.000000000000000000, 0.000000000000000000, -3.423824945385436635E-15 ) ) ;
#28 = COORDINATED_UNIVERSAL_TIME_OFFSET ( 1, 0, .AHEAD. ) ;
#29 = DIRECTION ( 'NONE',  ( 1.000000000000000000, 0.000000000000000000, -3.446470482073126542E-15 ) ) ;
#30 = CYLINDRICAL_SURFACE ( 'NONE', #10, 3.254999999999999893 ) ;
#31 = AXIS2_PLACEMENT_3D ( 'NONE', #356, #17, #113 ) ;
#32 = APPROVAL ( #127, 'UNSPECIFIED' ) ;
#33 =( NAMED_UNIT ( * ) PLANE_ANGLE_UNIT ( ) SI_UNIT ( $, .RADIAN. ) );
#34 = CARTESIAN_POINT ( 'NONE',  ( 2.618611004132350648E-13, 0.000000000000000000, 75.00000000000001421 ) ) ;
#35 = PERSON_AND_ORGANIZATION ( #116, #75 ) ;
#36 = ADVANCED_FACE ( 'NONE', ( #243, #229 ), #319, .T. ) ;
#37 = EDGE_LOOP ( 'NONE', ( #379 ) ) ;
#38 = CONICAL_SURFACE ( 'NONE', #82, 2.299074173710928370, 0.2617993877991426910 ) ;
#39 = EDGE_CURVE ( 'NONE', #40, #40, #13, .T. ) ;
#40 = VERTEX_POINT ( 'NONE', #291 ) ;
#41 = ORIENTED_EDGE ( 'NONE', *, *, #339, .F. ) ;
#42 = CARTESIAN_POINT ( 'NONE',  ( 2.262679224830326685, 0.000000000000000000, -7.900102289283132421E-15 ) ) ;
#43 = DIRECTION ( 'NONE',  ( 3.491481338843133355E-15, -0.000000000000000000, 1.000000000000000000 ) ) ;
#44 = MANIFOLD_SOLID_BREP ( 'Corps-Déplacer/Copier1', #46 ) ;
#45 = EDGE_LOOP ( 'NONE', ( #53 ) ) ;
#46 = CLOSED_SHELL ( 'NONE', ( #16, #11, #257, #62, #367, #117, #260, #188, #232, #394, #36, #298, #326, #206, #381, #267 ) ) ;
#47 =( LENGTH_UNIT ( ) NAMED_UNIT ( * ) SI_UNIT ( .MILLI., .METRE. ) );
#48 = AXIS2_PLACEMENT_3D ( 'NONE', #306, #131, #340 ) ;
#49 = LOCAL_TIME ( 7, 49, 10.00000000000000000, #309 ) ;
#50 = EDGE_LOOP ( 'NONE', ( #211 ) ) ;
#51 = DIRECTION ( 'NONE',  ( 1.000000000000000000, 0.000000000000000000, -3.491481338843133355E-15 ) ) ;
#52 = EDGE_LOOP ( 'NONE', ( #139 ) ) ;
#53 = ORIENTED_EDGE ( 'NONE', *, *, #272, .T. ) ;
#54 = VERTEX_POINT ( 'NONE', #64 ) ;
#55 = CARTESIAN_POINT ( 'NONE',  ( 2.590679153421605076E-13, 0.000000000000000000, 74.20000000000000284 ) ) ;
#56 = EDGE_CURVE ( 'NONE', #221, #221, #217, .T. ) ;
#57 = DIRECTION ( 'NONE',  ( 3.491481338843133355E-15, -0.000000000000000000, 1.000000000000000000 ) ) ;
#58 = ORIENTED_EDGE ( 'NONE', *, *, #39, .T. ) ;
#59 = FACE_BOUND ( 'NONE', #74, .T. ) ;
#60 = CARTESIAN_POINT ( 'NONE',  ( 3.255000000000006999, 0.000000000000000000, 1.927083333333317938 ) ) ;
#61 = FACE_OUTER_BOUND ( 'NONE', #287, .T. ) ;
#62 = ADVANCED_FACE ( 'NONE', ( #163, #212 ), #303, .T. ) ;
#63 = SECURITY_CLASSIFICATION_LEVEL ( 'unclassified' ) ;
#64 = CARTESIAN_POINT ( 'NONE',  ( 2.533312163512972504, 0.000000000000000000, 2.499999999999993339 ) ) ;
#65 = CIRCLE ( 'NONE', #114, 3.999999999999994227 ) ;
#66 = PLANE ( 'NONE',  #278 ) ;
#67 = APPROVAL_STATUS ( 'not_yet_approved' ) ;
#68 = FACE_OUTER_BOUND ( 'NONE', #181, .T. ) ;
#69 = DESIGN_CONTEXT ( 'detailed design', #210, 'design' ) ;
#70 = CIRCLE ( 'NONE', #180, 2.533312163512963622 ) ;
#71 = PRODUCT ( '958039', '958039', '', ( #279 ) ) ;
#72 = EDGE_LOOP ( 'NONE', ( #231 ) ) ;
#73 = EDGE_CURVE ( 'NONE', #149, #149, #263, .T. ) ;
#74 = EDGE_LOOP ( 'NONE', ( #172 ) ) ;
#75 = ORGANIZATION ( 'UNSPECIFIED', 'UNSPECIFIED', '' ) ;
#76 = ORIENTED_EDGE ( 'NONE', *, *, #39, .F. ) ;
#77 = DIRECTION ( 'NONE',  ( 3.491481338843133355E-15, -0.000000000000000000, 1.000000000000000000 ) ) ;
#78 = VERTEX_POINT ( 'NONE', #119 ) ;
#79 = CC_DESIGN_DATE_AND_TIME_ASSIGNMENT ( #274, #364, ( #235 ) ) ;
#80 = DIRECTION ( 'NONE',  ( 1.000000000000000000, 0.000000000000000000, -3.464117540353071286E-15 ) ) ;
#81 = ORIENTED_EDGE ( 'NONE', *, *, #339, .T. ) ;
#82 = AXIS2_PLACEMENT_3D ( 'NONE', #275, #374, #393 ) ;
#83 = APPROVAL_PERSON_ORGANIZATION ( #121, #6, #99 ) ;
#84 = EDGE_LOOP ( 'NONE', ( #305 ) ) ;
#85 = CARTESIAN_POINT ( 'NONE',  ( 6.728375496728940835E-15, 0.000000000000000000, 1.927083333333329263 ) ) ;
#86 = DIRECTION ( 'NONE',  ( 1.000000000000000000, 0.000000000000000000, -3.491481338843133355E-15 ) ) ;
#87 = FACE_OUTER_BOUND ( 'NONE', #72, .T. ) ;
#88 = EDGE_CURVE ( 'NONE', #280, #280, #233, .T. ) ;
#89 = ORIENTED_EDGE ( 'NONE', *, *, #88, .F. ) ;
#90 = CARTESIAN_POINT ( 'NONE',  ( 2.590679153421605076E-13, 0.000000000000000000, 74.20000000000000284 ) ) ;
#91 = APPROVAL_ROLE ( '' ) ;
#92 = AXIS2_PLACEMENT_3D ( 'NONE', #22, #145, #389 ) ;
#93 = DIRECTION ( 'NONE',  ( -1.000000000000000000, 0.000000000000000000, 3.469446951953619316E-15 ) ) ;
#94 = VERTEX_POINT ( 'NONE', #197 ) ;
#95 = DIRECTION ( 'NONE',  ( 1.000000000000000000, 0.000000000000000000, 0.000000000000000000 ) ) ;
#96 = DIRECTION ( 'NONE',  ( 1.000000000000000000, 0.000000000000000000, -3.509420569020073468E-15 ) ) ;
#97 = AXIS2_PLACEMENT_3D ( 'NONE', #302, #273, #390 ) ;
#98 = FACE_OUTER_BOUND ( 'NONE', #168, .T. ) ;
#99 = APPROVAL_ROLE ( '' ) ;
#100 = SHAPE_DEFINITION_REPRESENTATION ( #104, #323 ) ;
#101 = EDGE_LOOP ( 'NONE', ( #81 ) ) ;
#102 = DIRECTION ( 'NONE',  ( 3.491481338843133355E-15, -0.000000000000000000, 1.000000000000000000 ) ) ;
#103 = TOROIDAL_SURFACE ( 'NONE', #382, 3.264999999999997904, 1.000000000000000666 ) ;
#104 = PRODUCT_DEFINITION_SHAPE ( 'NONE', 'NONE',  #347 ) ;
#105 = EDGE_LOOP ( 'NONE', ( #41 ) ) ;
#106 = EDGE_LOOP ( 'NONE', ( #293 ) ) ;
#107 = CARTESIAN_POINT ( 'NONE',  ( 6.514691850082629849E-14, 0.000000000000000000, 18.65881904510251843 ) ) ;
#108 = CIRCLE ( 'NONE', #320, 2.533312163512963622 ) ;
#109 = DIRECTION ( 'NONE',  ( -3.491481338843133355E-15, 0.000000000000000000, -1.000000000000000000 ) ) ;
#110 = EDGE_CURVE ( 'NONE', #194, #194, #124, .T. ) ;
#111 = DIRECTION ( 'NONE',  ( 3.491481338843133355E-15, -0.000000000000000000, 1.000000000000000000 ) ) ;
#112 = DIRECTION ( 'NONE',  ( -1.000000000000000000, 0.000000000000000000, 3.464117540353071286E-15 ) ) ;
#113 = DIRECTION ( 'NONE',  ( 1.000000000000000000, 0.000000000000000000, -3.469446951953617344E-15 ) ) ;
#114 = AXIS2_PLACEMENT_3D ( 'NONE', #55, #138, #262 ) ;
#115 = EDGE_LOOP ( 'NONE', ( #89 ) ) ;
#116 = PERSON ( 'UNSPECIFIED', 'UNSPECIFIED', 'UNSPECIFIED', ('UNSPECIFIED'), ('UNSPECIFIED'), ('UNSPECIFIED') ) ;
#117 = ADVANCED_FACE ( 'NONE', ( #21, #360 ), #350, .T. ) ;
#118 = DIRECTION ( 'NONE',  ( 1.000000000000000000, 0.000000000000000000, -3.018125288540465781E-15 ) ) ;
#119 = CARTESIAN_POINT ( 'NONE',  ( 3.200000000000257305, 0.000000000000000000, 75.00000000000000000 ) ) ;
#120 = CARTESIAN_POINT ( 'NONE',  ( 0.000000000000000000, 0.000000000000000000, 0.000000000000000000 ) ) ;
#121 = PERSON_AND_ORGANIZATION ( #116, #75 ) ;
#122 = DIRECTION ( 'NONE',  ( 1.000000000000000000, 0.000000000000000000, -3.491481338843133355E-15 ) ) ;
#123 =( NAMED_UNIT ( * ) SI_UNIT ( $, .STERADIAN. ) SOLID_ANGLE_UNIT ( ) );
#124 = CIRCLE ( 'NONE', #335, 3.254999999999999893 ) ;
#125 = EDGE_LOOP ( 'NONE', ( #289 ) ) ;
#126 = DIRECTION ( 'NONE',  ( -3.491481338843133355E-15, 0.000000000000000000, -1.000000000000000000 ) ) ;
#127 = APPROVAL_STATUS ( 'not_yet_approved' ) ;
#128 = VERTEX_POINT ( 'NONE', #361 ) ;
#129 = DIRECTION ( 'NONE',  ( 3.491481338843133355E-15, -0.000000000000000000, 1.000000000000000000 ) ) ;
#130 = CALENDAR_DATE ( 2023, 27, 9 ) ;
#131 = DIRECTION ( 'NONE',  ( 3.491481338843133355E-15, -0.000000000000000000, 1.000000000000000000 ) ) ;
#132 = APPLICATION_PROTOCOL_DEFINITION ( 'international standard', 'config_control_design', 1994, #353 ) ;
#133 = CC_DESIGN_PERSON_AND_ORGANIZATION_ASSIGNMENT ( #3, #369, ( #71 ) ) ;
#134 = EDGE_CURVE ( 'NONE', #178, #178, #108, .T. ) ;
#135 = AXIS2_PLACEMENT_3D ( 'NONE', #380, #43, #268 ) ;
#136 = CONICAL_SURFACE ( 'NONE', #2, 3.254999999999999893, 1.047197551196590082 ) ;
#137 = EDGE_LOOP ( 'NONE', ( #237 ) ) ;
#138 = DIRECTION ( 'NONE',  ( 3.491481338843133355E-15, -0.000000000000000000, 1.000000000000000000 ) ) ;
#139 = ORIENTED_EDGE ( 'NONE', *, *, #225, .T. ) ;
#140 = CARTESIAN_POINT ( 'NONE',  ( 6.364679523932772170E-15, 0.000000000000000000, 1.822916666666660301 ) ) ;
#141 = CARTESIAN_POINT ( 'NONE',  ( 4.909895632748147998E-15, 0.000000000000000000, 1.406249999999997780 ) ) ;
#142 = FACE_OUTER_BOUND ( 'NONE', #329, .T. ) ;
#143 = DIRECTION ( 'NONE',  ( 1.000000000000000000, 0.000000000000000000, -3.509420569020072679E-15 ) ) ;
#144 = AXIS2_PLACEMENT_3D ( 'NONE', #310, #57, #151 ) ;
#145 = DIRECTION ( 'NONE',  ( 3.491481338843133355E-15, -0.000000000000000000, 1.000000000000000000 ) ) ;
#146 = FACE_BOUND ( 'NONE', #25, .T. ) ;
#147 = ORIENTED_EDGE ( 'NONE', *, *, #26, .F. ) ;
#148 = CALENDAR_DATE ( 2023, 27, 9 ) ;
#149 = VERTEX_POINT ( 'NONE', #7 ) ;
#150 = ORIENTED_EDGE ( 'NONE', *, *, #375, .F. ) ;
#151 = DIRECTION ( 'NONE',  ( 1.000000000000000000, 0.000000000000000000, -3.469446951953614189E-15 ) ) ;
#152 = CALENDAR_DATE ( 2023, 27, 9 ) ;
#153 = DIRECTION ( 'NONE',  ( -1.000000000000000000, 0.000000000000000000, 3.491481338843133355E-15 ) ) ;
#154 = CC_DESIGN_PERSON_AND_ORGANIZATION_ASSIGNMENT ( #343, #341, ( #304 ) ) ;
#155 = DATE_TIME_ROLE ( 'creation_date' ) ;
#156 = AXIS2_PLACEMENT_3D ( 'NONE', #173, #177, #238 ) ;
#157 = DIRECTION ( 'NONE',  ( 1.000000000000000000, 0.000000000000000000, -4.336808689942024047E-15 ) ) ;
#158 = APPLICATION_PROTOCOL_DEFINITION ( 'international standard', 'config_control_design', 1994, #210 ) ;
#159 = CARTESIAN_POINT ( 'NONE',  ( 2.533312163512967174, 0.000000000000000000, 1.093749999999995559 ) ) ;
#160 = CARTESIAN_POINT ( 'NONE',  ( 2.618611004132350143E-13, 0.000000000000000000, 75.00000000000000000 ) ) ;
#161 = DATE_AND_TIME ( #130, #49 ) ;
#162 = EDGE_CURVE ( 'NONE', #54, #54, #70, .T. ) ;
#163 = FACE_BOUND ( 'NONE', #169, .T. ) ;
#164 = CARTESIAN_POINT ( 'NONE',  ( 3.818807714359692490E-15, 0.000000000000000000, 1.093750000000004441 ) ) ;
#165 = CIRCLE ( 'NONE', #144, 4.000000000000000000 ) ;
#166 = DIRECTION ( 'NONE',  ( 1.000000000000000000, 0.000000000000000000, -6.127058634796672738E-15 ) ) ;
#167 = AXIS2_PLACEMENT_3D ( 'NONE', #355, #111, #86 ) ;
#168 = EDGE_LOOP ( 'NONE', ( #19 ) ) ;
#169 = EDGE_LOOP ( 'NONE', ( #209 ) ) ;
#170 = DIRECTION ( 'NONE',  ( -1.000000000000000000, 0.000000000000000000, 3.497426362856466107E-15 ) ) ;
#171 = CARTESIAN_POINT ( 'NONE',  ( 2.265000000000008562, 0.000000000000000000, 2.499999999999994227 ) ) ;
#172 = ORIENTED_EDGE ( 'NONE', *, *, #345, .F. ) ;
#173 = CARTESIAN_POINT ( 'NONE',  ( 2.000327850378900441E-15, 0.000000000000000000, 0.5729166666666729579 ) ) ;
#174 = AXIS2_PLACEMENT_3D ( 'NONE', #327, #109, #170 ) ;
#175 = ORIENTED_EDGE ( 'NONE', *, *, #110, .F. ) ;
#176 = PLANE ( 'NONE',  #167 ) ;
#177 = DIRECTION ( 'NONE',  ( 3.491481338843133355E-15, -0.000000000000000000, 1.000000000000000000 ) ) ;
#178 = VERTEX_POINT ( 'NONE', #190 ) ;
#179 = CARTESIAN_POINT ( 'NONE',  ( 4.909895632748147998E-15, 0.000000000000000000, 1.406249999999997780 ) ) ;
#180 = AXIS2_PLACEMENT_3D ( 'NONE', #325, #297, #266 ) ;
#181 = EDGE_LOOP ( 'NONE', ( #348 ) ) ;
#182 = PERSON_AND_ORGANIZATION_ROLE ( 'creator' ) ;
#183 = LOCAL_TIME ( 7, 49, 10.00000000000000000, #307 ) ;
#184 = CARTESIAN_POINT ( 'NONE',  ( 3.255000000000002114, 0.000000000000000000, 0.5729166666666615226 ) ) ;
#185 = CARTESIAN_POINT ( 'NONE',  ( 6.424325663471365374E-14, 0.000000000000000000, 18.39999999999999858 ) ) ;
#186 = EDGE_LOOP ( 'NONE', ( #352 ) ) ;
#187 = APPROVAL_ROLE ( '' ) ;
#188 = ADVANCED_FACE ( 'NONE', ( #330, #208 ), #136, .T. ) ;
#189 = DIRECTION ( 'NONE',  ( 1.000000000000000000, 0.000000000000000000, -3.464117540353071286E-15 ) ) ;
#190 = CARTESIAN_POINT ( 'NONE',  ( 2.533312163512968507, 0.000000000000000000, 1.406249999999988898 ) ) ;
#191 = DIRECTION ( 'NONE',  ( -3.491481338843133355E-15, 0.000000000000000000, -1.000000000000000000 ) ) ;
#192 = COORDINATED_UNIVERSAL_TIME_OFFSET ( 1, 0, .AHEAD. ) ;
#193 = AXIS2_PLACEMENT_3D ( 'NONE', #14, #253, #373 ) ;
#194 = VERTEX_POINT ( 'NONE', #60 ) ;
#195 = CYLINDRICAL_SURFACE ( 'NONE', #48, 3.254999999999999893 ) ;
#196 = PERSON_AND_ORGANIZATION_ROLE ( 'creator' ) ;
#197 = CARTESIAN_POINT ( 'NONE',  ( 2.265000000000062297, 0.000000000000000000, 18.39999999999999147 ) ) ;
#198 = CARTESIAN_POINT ( 'NONE',  ( 2.618611004132350143E-13, 0.000000000000000000, 75.00000000000000000 ) ) ;
#199 = CIRCLE ( 'NONE', #358, 3.199999999999995293 ) ;
#200 = AXIS2_PLACEMENT_3D ( 'NONE', #90, #247, #93 ) ;
#201 = DIRECTION ( 'NONE',  ( 3.491481338843133355E-15, -0.000000000000000000, 1.000000000000000000 ) ) ;
#202 = PRODUCT_RELATED_PRODUCT_CATEGORY ( 'detail', '', ( #71 ) ) ;
#203 = ORIENTED_EDGE ( 'NONE', *, *, #26, .T. ) ;
#204 = EDGE_LOOP ( 'NONE', ( #150 ) ) ;
#205 = LOCAL_TIME ( 7, 49, 10.00000000000000000, #5 ) ;
#206 = ADVANCED_FACE ( 'NONE', ( #236, #388 ), #240, .T. ) ;
#207 = ORIENTED_EDGE ( 'NONE', *, *, #73, .T. ) ;
#208 = FACE_OUTER_BOUND ( 'NONE', #12, .T. ) ;
#209 = ORIENTED_EDGE ( 'NONE', *, *, #56, .F. ) ;
#210 = APPLICATION_CONTEXT ( 'configuration controlled 3d designs of mechanical parts and assemblies' ) ;
#211 = ORIENTED_EDGE ( 'NONE', *, *, #245, .F. ) ;
#212 = FACE_OUTER_BOUND ( 'NONE', #336, .T. ) ;
#213 = AXIS2_PLACEMENT_3D ( 'NONE', #198, #102, #166 ) ;
#214 = CONICAL_SURFACE ( 'NONE', #200, 3.999999999999994227, 0.7853981633974418397 ) ;
#215 = ORIENTED_EDGE ( 'NONE', *, *, #162, .F. ) ;
#216 = FACE_OUTER_BOUND ( 'NONE', #101, .T. ) ;
#217 = CIRCLE ( 'NONE', #378, 2.533312163512963178 ) ;
#218 = ORIENTED_EDGE ( 'NONE', *, *, #88, .T. ) ;
#219 = PERSON_AND_ORGANIZATION ( #116, #75 ) ;
#220 = DIRECTION ( 'NONE',  ( 3.491481338843133355E-15, -0.000000000000000000, 1.000000000000000000 ) ) ;
#221 = VERTEX_POINT ( 'NONE', #159 ) ;
#222 = FACE_BOUND ( 'NONE', #105, .T. ) ;
#223 = APPROVAL_DATE_TIME ( #284, #32 ) ;
#224 = CARTESIAN_POINT ( 'NONE',  ( 2.618611004132350648E-13, 3.199999999999995293, 75.00000000000001421 ) ) ;
#225 = EDGE_CURVE ( 'NONE', #128, #128, #65, .T. ) ;
#226 = PERSON_AND_ORGANIZATION ( #116, #75 ) ;
#227 = CONICAL_SURFACE ( 'NONE', #23, 2.262679224830326685, 1.047197551196594745 ) ;
#228 = AXIS2_PLACEMENT_3D ( 'NONE', #1, #126, #368 ) ;
#229 = FACE_OUTER_BOUND ( 'NONE', #292, .T. ) ;
#230 = CC_DESIGN_DATE_AND_TIME_ASSIGNMENT ( #161, #155, ( #347 ) ) ;
#231 = ORIENTED_EDGE ( 'NONE', *, *, #311, .T. ) ;
#232 = ADVANCED_FACE ( 'NONE', ( #142, #87 ), #386, .T. ) ;
#233 = CIRCLE ( 'NONE', #156, 3.254999999999999893 ) ;
#234 = EDGE_LOOP ( 'NONE', ( #175 ) ) ;
#235 = SECURITY_CLASSIFICATION ( '', '', #63 ) ;
#236 = FACE_OUTER_BOUND ( 'NONE', #186, .T. ) ;
#237 = ORIENTED_EDGE ( 'NONE', *, *, #311, .F. ) ;
#238 = DIRECTION ( 'NONE',  ( 1.000000000000000000, 0.000000000000000000, -3.497426362856466107E-15 ) ) ;
#239 = FACE_OUTER_BOUND ( 'NONE', #115, .T. ) ;
#240 = CYLINDRICAL_SURFACE ( 'NONE', #31, 3.999999999999996447 ) ;
#241 = CARTESIAN_POINT ( 'NONE',  ( 2.533312163512972059, 0.000000000000000000, 2.343749999999996891 ) ) ;
#242 = CC_DESIGN_SECURITY_CLASSIFICATION ( #235, ( #304 ) ) ;
#243 = FACE_OUTER_BOUND ( 'NONE', #377, .T. ) ;
#244 = DIRECTION ( 'NONE',  ( 3.491481338843133355E-15, -0.000000000000000000, 1.000000000000000000 ) ) ;
#245 = EDGE_CURVE ( 'NONE', #251, #251, #295, .T. ) ;
#246 = APPROVAL_DATE_TIME ( #372, #6 ) ;
#247 = DIRECTION ( 'NONE',  ( -3.491481338843133355E-15, 0.000000000000000000, -1.000000000000000000 ) ) ;
#248 = AXIS2_PLACEMENT_3D ( 'NONE', #141, #294, #354 ) ;
#249 = DIRECTION ( 'NONE',  ( 3.491481338843133355E-15, -0.000000000000000000, 1.000000000000000000 ) ) ;
#250 = CALENDAR_DATE ( 2023, 27, 9 ) ;
#251 = VERTEX_POINT ( 'NONE', #332 ) ;
#252 = CYLINDRICAL_SURFACE ( 'NONE', #97, 2.533312163512963622 ) ;
#253 = DIRECTION ( 'NONE',  ( 3.491481338843133355E-15, -0.000000000000000000, 1.000000000000000000 ) ) ;
#254 = DIRECTION ( 'NONE',  ( 3.491481338843133355E-15, -0.000000000000000000, 1.000000000000000000 ) ) ;
#255 = CIRCLE ( 'NONE', #92, 2.264999999999997904 ) ;
#256 = APPROVAL_PERSON_ORGANIZATION ( #219, #318, #187 ) ;
#257 = ADVANCED_FACE ( 'NONE', ( #24, #61 ), #30, .T. ) ;
#258 = AXIS2_PLACEMENT_3D ( 'NONE', #371, #342, #27 ) ;
#259 =( GEOMETRIC_REPRESENTATION_CONTEXT ( 3 ) GLOBAL_UNCERTAINTY_ASSIGNED_CONTEXT ( ( #283 ) ) GLOBAL_UNIT_ASSIGNED_CONTEXT ( ( #47, #33, #123 ) ) REPRESENTATION_CONTEXT ( 'NONE', 'WORKASPACE' ) );
#260 = ADVANCED_FACE ( 'NONE', ( #281, #68 ), #195, .T. ) ;
#261 = ORIENTED_EDGE ( 'NONE', *, *, #110, .T. ) ;
#262 = DIRECTION ( 'NONE',  ( 1.000000000000000000, 0.000000000000000000, -3.469446951953619316E-15 ) ) ;
#263 = CIRCLE ( 'NONE', #376, 2.299074173710928370 ) ;
#264 = ORIENTED_EDGE ( 'NONE', *, *, #345, .T. ) ;
#265 = ORIENTED_EDGE ( 'NONE', *, *, #272, .F. ) ;
#266 = DIRECTION ( 'NONE',  ( 1.000000000000000000, 0.000000000000000000, -3.423824945385436635E-15 ) ) ;
#267 = ADVANCED_FACE ( 'NONE', ( #216 ), #66, .F. ) ;
#268 = DIRECTION ( 'NONE',  ( 1.000000000000000000, 0.000000000000000000, -5.478119912616698932E-15 ) ) ;
#269 = CARTESIAN_POINT ( 'NONE',  ( 6.728375496728940835E-15, 0.000000000000000000, 1.927083333333329263 ) ) ;
#270 = AXIS2_PLACEMENT_3D ( 'NONE', #4, #254, #29 ) ;
#271 = VERTEX_POINT ( 'NONE', #241 ) ;
#272 = EDGE_CURVE ( 'NONE', #370, #370, #165, .T. ) ;
#273 = DIRECTION ( 'NONE',  ( 3.491481338843133355E-15, -0.000000000000000000, 1.000000000000000000 ) ) ;
#274 = DATE_AND_TIME ( #314, #315 ) ;
#275 = CARTESIAN_POINT ( 'NONE',  ( 6.514691850082629849E-14, 0.000000000000000000, 18.65881904510251843 ) ) ;
#276 = DATE_AND_TIME ( #152, #387 ) ;
#277 = PLANE ( 'NONE',  #228 ) ;
#278 = AXIS2_PLACEMENT_3D ( 'NONE', #224, #191, #153 ) ;
#279 = MECHANICAL_CONTEXT ( 'NONE', #353, 'mechanical' ) ;
#280 = VERTEX_POINT ( 'NONE', #184 ) ;
#281 = FACE_OUTER_BOUND ( 'NONE', #234, .T. ) ;
#282 = DIRECTION ( 'NONE',  ( 3.491481338843133355E-15, -0.000000000000000000, 1.000000000000000000 ) ) ;
#283 = UNCERTAINTY_MEASURE_WITH_UNIT (LENGTH_MEASURE( 1.000000000000000082E-05 ), #47, 'distance_accuracy_value', 'NONE');
#284 = DATE_AND_TIME ( #250, #183 ) ;
#285 = CC_DESIGN_APPROVAL ( #6, ( #347 ) ) ;
#286 = CC_DESIGN_PERSON_AND_ORGANIZATION_ASSIGNMENT ( #392, #196, ( #347 ) ) ;
#287 = EDGE_LOOP ( 'NONE', ( #218 ) ) ;
#288 = CC_DESIGN_APPROVAL ( #32, ( #304 ) ) ;
#289 = ORIENTED_EDGE ( 'NONE', *, *, #56, .T. ) ;
#290 = APPROVAL_DATE_TIME ( #276, #318 ) ;
#291 = CARTESIAN_POINT ( 'NONE',  ( 3.255000000000002114, 0.000000000000000000, 0.6770833333333167170 ) ) ;
#292 = EDGE_LOOP ( 'NONE', ( #264 ) ) ;
#293 = ORIENTED_EDGE ( 'NONE', *, *, #162, .T. ) ;
#294 = DIRECTION ( 'NONE',  ( 3.491481338843133355E-15, -0.000000000000000000, 1.000000000000000000 ) ) ;
#295 = CIRCLE ( 'NONE', #346, 3.254999999999999893 ) ;
#296 = ORIENTED_EDGE ( 'NONE', *, *, #375, .T. ) ;
#297 = DIRECTION ( 'NONE',  ( 3.491481338843133355E-15, -0.000000000000000000, 1.000000000000000000 ) ) ;
#298 = ADVANCED_FACE ( 'NONE', ( #8, #365 ), #103, .F. ) ;
#299 = DIRECTION ( 'NONE',  ( 3.491481338843133355E-15, -0.000000000000000000, 1.000000000000000000 ) ) ;
#300 = DIRECTION ( 'NONE',  ( 3.491481338843133355E-15, -0.000000000000000000, 1.000000000000000000 ) ) ;
#301 = CC_DESIGN_PERSON_AND_ORGANIZATION_ASSIGNMENT ( #35, #182, ( #304 ) ) ;
#302 = CARTESIAN_POINT ( 'NONE',  ( 2.618611004132350143E-13, 0.000000000000000000, 75.00000000000000000 ) ) ;
#303 = CONICAL_SURFACE ( 'NONE', #174, 3.254999999999999893, 1.047197551196590526 ) ;
#304 = PRODUCT_DEFINITION_FORMATION_WITH_SPECIFIED_SOURCE ( 'ANY', '', #71, .NOT_KNOWN. ) ;
#305 = ORIENTED_EDGE ( 'NONE', *, *, #73, .F. ) ;
#306 = CARTESIAN_POINT ( 'NONE',  ( 2.618611004132350143E-13, 0.000000000000000000, 75.00000000000000000 ) ) ;
#307 = COORDINATED_UNIVERSAL_TIME_OFFSET ( 1, 0, .AHEAD. ) ;
#308 = FACE_OUTER_BOUND ( 'NONE', #106, .T. ) ;
#309 = COORDINATED_UNIVERSAL_TIME_OFFSET ( 1, 0, .AHEAD. ) ;
#310 = CARTESIAN_POINT ( 'NONE',  ( 8.731063814992123012E-14, 0.000000000000000000, 25.00676064871958104 ) ) ;
#311 = EDGE_CURVE ( 'NONE', #271, #271, #366, .T. ) ;
#312 = CIRCLE ( 'NONE', #322, 2.262679224830326685 ) ;
#313 = CIRCLE ( 'NONE', #270, 2.265000000000000124 ) ;
#314 = CALENDAR_DATE ( 2023, 27, 9 ) ;
#315 = LOCAL_TIME ( 7, 49, 10.00000000000000000, #192 ) ;
#316 = FACE_OUTER_BOUND ( 'NONE', #15, .T. ) ;
#317 = PERSON_AND_ORGANIZATION ( #116, #75 ) ;
#318 = APPROVAL ( #337, 'UNSPECIFIED' ) ;
#319 = CYLINDRICAL_SURFACE ( 'NONE', #213, 2.264999999999998792 ) ;
#320 = AXIS2_PLACEMENT_3D ( 'NONE', #179, #77, #143 ) ;
#321 = AXIS2_PLACEMENT_3D ( 'NONE', #333, #395, #95 ) ;
#322 = AXIS2_PLACEMENT_3D ( 'NONE', #120, #244, #122 ) ;
#323 = ADVANCED_BREP_SHAPE_REPRESENTATION ( '958039', ( #44, #321 ), #259 ) ;
#324 = EDGE_LOOP ( 'NONE', ( #76 ) ) ;
#325 = CARTESIAN_POINT ( 'NONE',  ( 8.728703347107841277E-15, 0.000000000000000000, 2.500000000000002220 ) ) ;
#326 = ADVANCED_FACE ( 'NONE', ( #316, #146 ), #38, .T. ) ;
#327 = CARTESIAN_POINT ( 'NONE',  ( 2.364023823175020197E-15, 0.000000000000000000, 0.6770833333333281523 ) ) ;
#328 = VERTEX_POINT ( 'NONE', #42 ) ;
#329 = EDGE_LOOP ( 'NONE', ( #215 ) ) ;
#330 = FACE_BOUND ( 'NONE', #137, .T. ) ;
#331 = CARTESIAN_POINT ( 'NONE',  ( 4.000000000000087930, 0.000000000000000000, 25.00676064871956683 ) ) ;
#332 = CARTESIAN_POINT ( 'NONE',  ( 3.255000000000006555, 0.000000000000000000, 1.822916666666648977 ) ) ;
#333 = CARTESIAN_POINT ( 'NONE',  ( 0.000000000000000000, 0.000000000000000000, 0.000000000000000000 ) ) ;
#334 = DIRECTION ( 'NONE',  ( 1.000000000000000000, 0.000000000000000000, -4.263529280434548971E-15 ) ) ;
#335 = AXIS2_PLACEMENT_3D ( 'NONE', #85, #299, #80 ) ;
#336 = EDGE_LOOP ( 'NONE', ( #58 ) ) ;
#337 = APPROVAL_STATUS ( 'not_yet_approved' ) ;
#338 = DIRECTION ( 'NONE',  ( 1.000000000000000000, 0.000000000000000000, -3.491481338843133355E-15 ) ) ;
#339 = EDGE_CURVE ( 'NONE', #78, #78, #199, .T. ) ;
#340 = DIRECTION ( 'NONE',  ( 1.000000000000000000, 0.000000000000000000, -4.263529280434548971E-15 ) ) ;
#341 = PERSON_AND_ORGANIZATION_ROLE ( 'design_supplier' ) ;
#342 = DIRECTION ( 'NONE',  ( 3.491481338843133355E-15, -0.000000000000000000, 1.000000000000000000 ) ) ;
#343 = PERSON_AND_ORGANIZATION ( #116, #75 ) ;
#344 = FACE_OUTER_BOUND ( 'NONE', #125, .T. ) ;
#345 = EDGE_CURVE ( 'NONE', #20, #20, #313, .T. ) ;
#346 = AXIS2_PLACEMENT_3D ( 'NONE', #140, #249, #189 ) ;
#347 = PRODUCT_DEFINITION ( 'UNKNOWN', '', #304, #69 ) ;
#348 = ORIENTED_EDGE ( 'NONE', *, *, #245, .T. ) ;
#349 = EDGE_LOOP ( 'NONE', ( #296 ) ) ;
#350 = CONICAL_SURFACE ( 'NONE', #248, 2.533312163512963622, 1.047197551196604515 ) ;
#351 = APPROVAL_PERSON_ORGANIZATION ( #226, #32, #91 ) ;
#352 = ORIENTED_EDGE ( 'NONE', *, *, #225, .F. ) ;
#353 = APPLICATION_CONTEXT ( 'configuration controlled 3d designs of mechanical parts and assemblies' ) ;
#354 = DIRECTION ( 'NONE',  ( 1.000000000000000000, 0.000000000000000000, -3.509420569020072679E-15 ) ) ;
#355 = CARTESIAN_POINT ( 'NONE',  ( -2.139182412365848617E-33, 0.000000000000000000, -6.126861938419081230E-19 ) ) ;
#356 = CARTESIAN_POINT ( 'NONE',  ( 2.618611004132350143E-13, 0.000000000000000000, 75.00000000000000000 ) ) ;
#357 = CARTESIAN_POINT ( 'NONE',  ( 0.000000000000000000, 0.000000000000000000, 0.000000000000000000 ) ) ;
#358 = AXIS2_PLACEMENT_3D ( 'NONE', #34, #282, #157 ) ;
#359 = CC_DESIGN_APPROVAL ( #318, ( #235 ) ) ;
#360 = FACE_BOUND ( 'NONE', #37, .T. ) ;
#361 = CARTESIAN_POINT ( 'NONE',  ( 4.000000000000253131, 0.000000000000000000, 74.19999999999998863 ) ) ;
#362 = FACE_OUTER_BOUND ( 'NONE', #52, .T. ) ;
#363 = EDGE_LOOP ( 'NONE', ( #203 ) ) ;
#364 = DATE_TIME_ROLE ( 'classification_date' ) ;
#365 = FACE_OUTER_BOUND ( 'NONE', #363, .T. ) ;
#366 = CIRCLE ( 'NONE', #258, 2.533312163512963622 ) ;
#367 = ADVANCED_FACE ( 'NONE', ( #98, #344 ), #252, .T. ) ;
#368 = DIRECTION ( 'NONE',  ( -1.000000000000000000, 0.000000000000000000, 3.491481338843133355E-15 ) ) ;
#369 = PERSON_AND_ORGANIZATION_ROLE ( 'design_owner' ) ;
#370 = VERTEX_POINT ( 'NONE', #331 ) ;
#371 = CARTESIAN_POINT ( 'NONE',  ( 8.183159387913613129E-15, 0.000000000000000000, 2.343750000000005329 ) ) ;
#372 = DATE_AND_TIME ( #148, #205 ) ;
#373 = DIRECTION ( 'NONE',  ( 1.000000000000000000, 0.000000000000000000, -3.497426362856466107E-15 ) ) ;
#374 = DIRECTION ( 'NONE',  ( 3.491481338843133355E-15, -0.000000000000000000, 1.000000000000000000 ) ) ;
#375 = EDGE_CURVE ( 'NONE', #328, #328, #312, .T. ) ;
#376 = AXIS2_PLACEMENT_3D ( 'NONE', #107, #383, #118 ) ;
#377 = EDGE_LOOP ( 'NONE', ( #147 ) ) ;
#378 = AXIS2_PLACEMENT_3D ( 'NONE', #164, #201, #96 ) ;
#379 = ORIENTED_EDGE ( 'NONE', *, *, #134, .T. ) ;
#380 = CARTESIAN_POINT ( 'NONE',  ( 2.618611004132350143E-13, 0.000000000000000000, 75.00000000000000000 ) ) ;
#381 = ADVANCED_FACE ( 'NONE', ( #222, #362 ), #214, .T. ) ;
#382 = AXIS2_PLACEMENT_3D ( 'NONE', #185, #220, #338 ) ;
#383 = DIRECTION ( 'NONE',  ( 3.491481338843133355E-15, -0.000000000000000000, 1.000000000000000000 ) ) ;
#384 = DIRECTION ( 'NONE',  ( -3.491481338843133355E-15, 0.000000000000000000, -1.000000000000000000 ) ) ;
#385 = CC_DESIGN_PERSON_AND_ORGANIZATION_ASSIGNMENT ( #317, #9, ( #235 ) ) ;
#386 = CYLINDRICAL_SURFACE ( 'NONE', #135, 2.533312163512963622 ) ;
#387 = LOCAL_TIME ( 7, 49, 10.00000000000000000, #28 ) ;
#388 = FACE_OUTER_BOUND ( 'NONE', #45, .T. ) ;
#389 = DIRECTION ( 'NONE',  ( 1.000000000000000000, 0.000000000000000000, -3.063529317398337552E-15 ) ) ;
#390 = DIRECTION ( 'NONE',  ( 1.000000000000000000, 0.000000000000000000, -5.478119912616698932E-15 ) ) ;
#391 = FACE_BOUND ( 'NONE', #349, .T. ) ;
#392 = PERSON_AND_ORGANIZATION ( #116, #75 ) ;
#393 = DIRECTION ( 'NONE',  ( 1.000000000000000000, 0.000000000000000000, -3.018125288540465781E-15 ) ) ;
#394 = ADVANCED_FACE ( 'NONE', ( #59, #308 ), #277, .F. ) ;
#395 = DIRECTION ( 'NONE',  ( 0.000000000000000000, 0.000000000000000000, 1.000000000000000000 ) ) ;
ENDSEC;
END-ISO-10303-21;
