ISO-10303-21;
HEADER;
FILE_DESCRIPTION (( 'STEP AP203' ),
    '1' );
FILE_NAME ('958037.step',
    '2021-10-08T08:13:21',
    ( '' ),
    ( '' ),
    'SwSTEP 2.0',
    'SolidWorks 2019',
    '' );
FILE_SCHEMA (( 'CONFIG_CONTROL_DESIGN' ));
ENDSEC;

DATA;
#1 = EDGE_LOOP ( 'NONE', ( #177 ) ) ;
#2 = DIRECTION ( 'NONE',  ( 0.0000000000000000000, 1.000000000000000000, 0.0000000000000000000 ) ) ;
#3 = DIRECTION ( 'NONE',  ( 4.275831445896957731E-31, 1.000000000000000000, 1.224646799147353207E-16 ) ) ;
#4 = DIRECTION ( 'NONE',  ( -3.491481338843133355E-15, 1.224646799147353207E-16, -1.000000000000000000 ) ) ;
#5 = DIRECTION ( 'NONE',  ( 2.985937898274789353E-31, 1.000000000000000000, 8.404668003763614577E-17 ) ) ;
#6 = AXIS2_PLACEMENT_3D ( 'NONE', #163, #215, #77 ) ;
#7 = APPROVAL_PERSON_ORGANIZATION ( #11, #38, #222 ) ;
#8 = CARTESIAN_POINT ( 'NONE',  ( 3.554979281104959053E-14, -1.246918879160576030E-15, 10.18186533479473077 ) ) ;
#9 = ADVANCED_FACE ( 'NONE', ( #24, #161 ), #80, .T. ) ;
#10 = APPROVAL_DATE_TIME ( #52, #38 ) ;
#11 = PERSON_AND_ORGANIZATION ( #183, #168 ) ;
#12 = UNCERTAINTY_MEASURE_WITH_UNIT (LENGTH_MEASURE( 1.000000000000000082E-05 ), #50, 'distance_accuracy_value', 'NONE');
#13 = MANIFOLD_SOLID_BREP ( 'Corps-Déplacer/Copier1[2]', #104 ) ;
#14 = DIRECTION ( 'NONE',  ( 1.000000000000000000, 0.0000000000000000000, 0.0000000000000000000 ) ) ;
#15 = COORDINATED_UNIVERSAL_TIME_OFFSET ( 1, 0, .AHEAD. ) ;
#16 = MANIFOLD_SOLID_BREP ( 'Corps-Déplacer/Copier1[1]', #55 ) ;
#17 = EDGE_LOOP ( 'NONE', ( #37 ) ) ;
#18 = SHAPE_DEFINITION_REPRESENTATION ( #42, #157 ) ;
#19 = ORIENTED_EDGE ( 'NONE', *, *, #63, .F. ) ;
#20 = CC_DESIGN_DATE_AND_TIME_ASSIGNMENT ( #35, #133, ( #164 ) ) ;
#21 = CONICAL_SURFACE ( 'NONE', #6, 0.6449999999999989075, 1.047197551196592746 ) ;
#22 = AXIS2_PLACEMENT_3D ( 'NONE', #8, #182, #181 ) ;
#23 = EDGE_LOOP ( 'NONE', ( #160 ) ) ;
#24 = FACE_OUTER_BOUND ( 'NONE', #58, .T. ) ;
#25 = FACE_OUTER_BOUND ( 'NONE', #72, .T. ) ;
#26 = VERTEX_POINT ( 'NONE', #92 ) ;
#27 = APPROVAL ( #117, 'UNSPECIFIED' ) ;
#28 = CARTESIAN_POINT ( 'NONE',  ( 1.047444401652940007E-13, 4.124339402320052999E-33, 30.00000000000000000 ) ) ;
#29 = AXIS2_PLACEMENT_3D ( 'NONE', #115, #214, #5 ) ;
#30 = CARTESIAN_POINT ( 'NONE',  ( 1.040461438975253740E-13, -3.649447461459112464E-15, 29.80000000000000071 ) ) ;
#31 = PERSON_AND_ORGANIZATION ( #183, #168 ) ;
#32 = DATE_AND_TIME ( #220, #129 ) ;
#33 = AXIS2_PLACEMENT_3D ( 'NONE', #90, #162, #2 ) ;
#34 = APPROVAL_STATUS ( 'not_yet_approved' ) ;
#35 = DATE_AND_TIME ( #174, #124 ) ;
#36 = LOCAL_TIME ( 10, 13, 21.00000000000000000, #79 ) ;
#37 = ORIENTED_EDGE ( 'NONE', *, *, #158, .F. ) ;
#38 = APPROVAL ( #84, 'UNSPECIFIED' ) ;
#39 = EDGE_LOOP ( 'NONE', ( #107 ) ) ;
#40 = AXIS2_PLACEMENT_3D ( 'NONE', #45, #114, #144 ) ;
#41 = ORIENTED_EDGE ( 'NONE', *, *, #158, .T. ) ;
#42 = PRODUCT_DEFINITION_SHAPE ( 'NONE', 'NONE',  #164 ) ;
#43 = FACE_BOUND ( 'NONE', #1, .T. ) ;
#44 = CARTESIAN_POINT ( 'NONE',  ( 1.047444401652940007E-13, 0.5499999999999963807, 30.00000000000000000 ) ) ;
#45 = CARTESIAN_POINT ( 'NONE',  ( 3.491481338843133355E-14, 4.836725299084476827E-33, 10.00000000000000000 ) ) ;
#46 = PLANE ( 'NONE',  #172 ) ;
#47 = FACE_OUTER_BOUND ( 'NONE', #39, .T. ) ;
#48 = CC_DESIGN_PERSON_AND_ORGANIZATION_ASSIGNMENT ( #155, #78, ( #164 ) ) ;
#49 = PERSON_AND_ORGANIZATION ( #183, #168 ) ;
#50 =( LENGTH_UNIT ( ) NAMED_UNIT ( * ) SI_UNIT ( .MILLI., .METRE. ) );
#51 = PRODUCT_DEFINITION_FORMATION_WITH_SPECIFIED_SOURCE ( 'ANY', '', #142, .NOT_KNOWN. ) ;
#52 = DATE_AND_TIME ( #103, #36 ) ;
#53 = CC_DESIGN_PERSON_AND_ORGANIZATION_ASSIGNMENT ( #49, #190, ( #142 ) ) ;
#54 = CARTESIAN_POINT ( 'NONE',  ( 1.047444401652940007E-13, -3.673940397442059178E-15, 30.00000000000000000 ) ) ;
#55 = CLOSED_SHELL ( 'NONE', ( #217, #206, #139, #9, #98 ) ) ;
#56 = ORIENTED_EDGE ( 'NONE', *, *, #63, .T. ) ;
#57 = CALENDAR_DATE ( 2021, 8, 10 ) ;
#58 = EDGE_LOOP ( 'NONE', ( #195 ) ) ;
#59 = AXIS2_PLACEMENT_3D ( 'NONE', #130, #4, #75 ) ;
#60 = FACE_OUTER_BOUND ( 'NONE', #87, .T. ) ;
#61 = PLANE ( 'NONE',  #40 ) ;
#62 = FACE_OUTER_BOUND ( 'NONE', #192, .T. ) ;
#63 = EDGE_CURVE ( 'NONE', #113, #113, #112, .T. ) ;
#64 = DIRECTION ( 'NONE',  ( 3.491481338843133355E-15, -1.224646799147353207E-16, 1.000000000000000000 ) ) ;
#65 = VERTEX_POINT ( 'NONE', #97 ) ;
#66 =( NAMED_UNIT ( * ) SI_UNIT ( $, .STERADIAN. ) SOLID_ANGLE_UNIT ( ) );
#67 = COORDINATED_UNIVERSAL_TIME_OFFSET ( 1, 0, .AHEAD. ) ;
#68 = SECURITY_CLASSIFICATION_LEVEL ( 'unclassified' ) ;
#69 = CC_DESIGN_APPROVAL ( #27, ( #164 ) ) ;
#70 = EDGE_LOOP ( 'NONE', ( #109 ) ) ;
#71 = APPROVAL_PERSON_ORGANIZATION ( #205, #221, #101 ) ;
#72 = EDGE_LOOP ( 'NONE', ( #212 ) ) ;
#73 = DIRECTION ( 'NONE',  ( -3.491481338843133355E-15, 1.224646799147353207E-16, -1.000000000000000000 ) ) ;
#74 = FACE_OUTER_BOUND ( 'NONE', #17, .T. ) ;
#75 = DIRECTION ( 'NONE',  ( 4.275831445896959482E-31, 1.000000000000000000, 1.224646799147353207E-16 ) ) ;
#76 = DIRECTION ( 'NONE',  ( -3.491481338843133355E-15, 1.224646799147353207E-16, -1.000000000000000000 ) ) ;
#77 = DIRECTION ( 'NONE',  ( -2.985937898274789353E-31, -1.000000000000000000, -8.404668003763614577E-17 ) ) ;
#78 = PERSON_AND_ORGANIZATION_ROLE ( 'creator' ) ;
#79 = COORDINATED_UNIVERSAL_TIME_OFFSET ( 1, 0, .AHEAD. ) ;
#80 = CONICAL_SURFACE ( 'NONE', #33, 0.5500000000000000444, 0.7853981633974512766 ) ;
#81 = LOCAL_TIME ( 10, 13, 21.00000000000000000, #207 ) ;
#82 = CARTESIAN_POINT ( 'NONE',  ( 3.554979281104959053E-14, 0.7499999999999963363, 10.18186533479473077 ) ) ;
#83 = PERSON_AND_ORGANIZATION ( #183, #168 ) ;
#84 = APPROVAL_STATUS ( 'not_yet_approved' ) ;
#85 = AXIS2_PLACEMENT_3D ( 'NONE', #111, #146, #3 ) ;
#86 = CONICAL_SURFACE ( 'NONE', #22, 0.7499999999999976685, 0.5235987755982922653 ) ;
#87 = EDGE_LOOP ( 'NONE', ( #19 ) ) ;
#88 = ORIENTED_EDGE ( 'NONE', *, *, #175, .F. ) ;
#89 = ADVANCED_FACE ( 'NONE', ( #200 ), #21, .T. ) ;
#90 = CARTESIAN_POINT ( 'NONE',  ( 1.047444401652940007E-13, -3.673940397442059178E-15, 30.00000000000000000 ) ) ;
#91 = DIRECTION ( 'NONE',  ( 0.0000000000000000000, 1.000000000000000000, 0.0000000000000000000 ) ) ;
#92 = CARTESIAN_POINT ( 'NONE',  ( 1.040461438975253740E-13, 0.7499999999999963363, 29.80000000000000071 ) ) ;
#93 = DIRECTION ( 'NONE',  ( -3.491481338843133355E-15, 1.224646799147353207E-16, -1.000000000000000000 ) ) ;
#94 = DIRECTION ( 'NONE',  ( 0.0000000000000000000, 1.000000000000000000, 0.0000000000000000000 ) ) ;
#95 = CIRCLE ( 'NONE', #223, 0.6450000000000004619 ) ;
#96 = CC_DESIGN_APPROVAL ( #221, ( #194 ) ) ;
#97 = CARTESIAN_POINT ( 'NONE',  ( 3.491481338843133355E-14, 0.6449999999999993516, 10.00000000000000000 ) ) ;
#98 = ADVANCED_FACE ( 'NONE', ( #60 ), #126, .F. ) ;
#99 = DATE_TIME_ROLE ( 'classification_date' ) ;
#100 = AXIS2_PLACEMENT_3D ( 'NONE', #54, #110, #213 ) ;
#101 = APPROVAL_ROLE ( '' ) ;
#102 = APPROVAL_ROLE ( '' ) ;
#103 = CALENDAR_DATE ( 2021, 8, 10 ) ;
#104 = CLOSED_SHELL ( 'NONE', ( #89, #150, #180 ) ) ;
#105 =( GEOMETRIC_REPRESENTATION_CONTEXT ( 3 ) GLOBAL_UNCERTAINTY_ASSIGNED_CONTEXT ( ( #12 ) ) GLOBAL_UNIT_ASSIGNED_CONTEXT ( ( #50, #137, #66 ) ) REPRESENTATION_CONTEXT ( 'NONE', 'WORKASPACE' ) );
#106 = EDGE_CURVE ( 'NONE', #26, #26, #209, .T. ) ;
#107 = ORIENTED_EDGE ( 'NONE', *, *, #106, .T. ) ;
#108 = EDGE_CURVE ( 'NONE', #218, #218, #178, .T. ) ;
#109 = ORIENTED_EDGE ( 'NONE', *, *, #138, .F. ) ;
#110 = DIRECTION ( 'NONE',  ( -3.491481338843133355E-15, 1.224646799147353207E-16, -1.000000000000000000 ) ) ;
#111 = CARTESIAN_POINT ( 'NONE',  ( 0.0000000000000000000, 0.0000000000000000000, 0.0000000000000000000 ) ) ;
#112 = CIRCLE ( 'NONE', #100, 0.5500000000000000444 ) ;
#113 = VERTEX_POINT ( 'NONE', #44 ) ;
#114 = DIRECTION ( 'NONE',  ( 3.491481338843133355E-15, -1.224646799147353207E-16, 1.000000000000000000 ) ) ;
#115 = CARTESIAN_POINT ( 'NONE',  ( 1.300195960599319366E-15, -4.560473526517144132E-17, 0.3723909236273122980 ) ) ;
#116 = AXIS2_PLACEMENT_3D ( 'NONE', #173, #219, #14 ) ;
#117 = APPROVAL_STATUS ( 'not_yet_approved' ) ;
#118 = PERSON_AND_ORGANIZATION_ROLE ( 'classification_officer' ) ;
#119 = MECHANICAL_CONTEXT ( 'NONE', #188, 'mechanical' ) ;
#120 = AXIS2_PLACEMENT_3D ( 'NONE', #196, #216, #94 ) ;
#121 = APPLICATION_PROTOCOL_DEFINITION ( 'international standard', 'config_control_design', 1994, #188 ) ;
#122 = EDGE_LOOP ( 'NONE', ( #41 ) ) ;
#123 = EDGE_LOOP ( 'NONE', ( #56 ) ) ;
#124 = LOCAL_TIME ( 10, 13, 21.00000000000000000, #15 ) ;
#125 = CC_DESIGN_DATE_AND_TIME_ASSIGNMENT ( #32, #99, ( #194 ) ) ;
#126 = PLANE ( 'NONE',  #159 ) ;
#127 = FACE_OUTER_BOUND ( 'NONE', #140, .T. ) ;
#128 = DIRECTION ( 'NONE',  ( 0.0000000000000000000, 1.000000000000000000, 0.0000000000000000000 ) ) ;
#129 = LOCAL_TIME ( 10, 13, 21.00000000000000000, #153 ) ;
#130 = CARTESIAN_POINT ( 'NONE',  ( 0.0000000000000000000, 0.0000000000000000000, 0.0000000000000000000 ) ) ;
#131 = PRODUCT_RELATED_PRODUCT_CATEGORY ( 'detail', '', ( #142 ) ) ;
#132 = CARTESIAN_POINT ( 'NONE',  ( 3.491481338843133355E-14, 4.836725299084476827E-33, 10.00000000000000000 ) ) ;
#133 = DATE_TIME_ROLE ( 'creation_date' ) ;
#134 = APPROVAL_DATE_TIME ( #171, #27 ) ;
#135 = PERSON_AND_ORGANIZATION_ROLE ( 'creator' ) ;
#136 = CC_DESIGN_APPROVAL ( #38, ( #51 ) ) ;
#137 =( NAMED_UNIT ( * ) PLANE_ANGLE_UNIT ( ) SI_UNIT ( $, .RADIAN. ) );
#138 = EDGE_CURVE ( 'NONE', #65, #65, #95, .T. ) ;
#139 = ADVANCED_FACE ( 'NONE', ( #62, #47 ), #143, .T. ) ;
#140 = EDGE_LOOP ( 'NONE', ( #208 ) ) ;
#141 = CC_DESIGN_PERSON_AND_ORGANIZATION_ASSIGNMENT ( #31, #118, ( #194 ) ) ;
#142 = PRODUCT ( '958037', '958037', '', ( #119 ) ) ;
#143 = CYLINDRICAL_SURFACE ( 'NONE', #59, 0.7499999999999987788 ) ;
#144 = DIRECTION ( 'NONE',  ( -4.275831445896958607E-31, -1.000000000000000000, -1.224646799147353207E-16 ) ) ;
#145 = CARTESIAN_POINT ( 'NONE',  ( 1.300195960599319563E-15, 0.6449999999999989075, 0.3723909236273123535 ) ) ;
#146 = DIRECTION ( 'NONE',  ( -3.491481338843133355E-15, 1.224646799147353207E-16, -1.000000000000000000 ) ) ;
#147 = AXIS2_PLACEMENT_3D ( 'NONE', #30, #76, #128 ) ;
#148 = LOCAL_TIME ( 10, 13, 21.00000000000000000, #67 ) ;
#149 = FACE_OUTER_BOUND ( 'NONE', #23, .T. ) ;
#150 = ADVANCED_FACE ( 'NONE', ( #74, #149 ), #198, .T. ) ;
#151 = PERSON_AND_ORGANIZATION ( #183, #168 ) ;
#152 = CC_DESIGN_PERSON_AND_ORGANIZATION_ASSIGNMENT ( #202, #189, ( #51 ) ) ;
#153 = COORDINATED_UNIVERSAL_TIME_OFFSET ( 1, 0, .AHEAD. ) ;
#154 = APPROVAL_PERSON_ORGANIZATION ( #83, #27, #102 ) ;
#155 = PERSON_AND_ORGANIZATION ( #183, #168 ) ;
#156 = CALENDAR_DATE ( 2021, 8, 10 ) ;
#157 = ADVANCED_BREP_SHAPE_REPRESENTATION ( '958037', ( #16, #13, #116 ), #105 ) ;
#158 = EDGE_CURVE ( 'NONE', #169, #169, #187, .T. ) ;
#159 = AXIS2_PLACEMENT_3D ( 'NONE', #28, #73, #184 ) ;
#160 = ORIENTED_EDGE ( 'NONE', *, *, #138, .T. ) ;
#161 = FACE_BOUND ( 'NONE', #123, .T. ) ;
#162 = DIRECTION ( 'NONE',  ( -3.491481338843133355E-15, 1.224646799147353207E-16, -1.000000000000000000 ) ) ;
#163 = CARTESIAN_POINT ( 'NONE',  ( 1.300195960599319366E-15, -4.560473526517144132E-17, 0.3723909236273122980 ) ) ;
#164 = PRODUCT_DEFINITION ( 'UNKNOWN', '', #51, #211 ) ;
#165 = CARTESIAN_POINT ( 'NONE',  ( 3.491481338843133355E-14, 0.6449999999999993516, 10.00000000000000000 ) ) ;
#166 = DIRECTION ( 'NONE',  ( -3.491481338843133355E-15, 1.224646799147353207E-16, -1.000000000000000000 ) ) ;
#167 = DIRECTION ( 'NONE',  ( -4.275831445896958607E-31, -1.000000000000000000, -1.224646799147353207E-16 ) ) ;
#168 = ORGANIZATION ( 'UNSPECIFIED', 'UNSPECIFIED', '' ) ;
#169 = VERTEX_POINT ( 'NONE', #145 ) ;
#170 = CC_DESIGN_PERSON_AND_ORGANIZATION_ASSIGNMENT ( #151, #135, ( #51 ) ) ;
#171 = DATE_AND_TIME ( #156, #148 ) ;
#172 = AXIS2_PLACEMENT_3D ( 'NONE', #132, #64, #167 ) ;
#173 = CARTESIAN_POINT ( 'NONE',  ( 0.0000000000000000000, 0.0000000000000000000, 0.0000000000000000000 ) ) ;
#174 = CALENDAR_DATE ( 2021, 8, 10 ) ;
#175 = EDGE_CURVE ( 'NONE', #204, #204, #203, .T. ) ;
#176 = APPROVAL_DATE_TIME ( #210, #221 ) ;
#177 = ORIENTED_EDGE ( 'NONE', *, *, #108, .F. ) ;
#178 = CIRCLE ( 'NONE', #193, 0.6450000000000004619 ) ;
#179 = CC_DESIGN_SECURITY_CLASSIFICATION ( #194, ( #51 ) ) ;
#180 = ADVANCED_FACE ( 'NONE', ( #186 ), #46, .T. ) ;
#181 = DIRECTION ( 'NONE',  ( 0.0000000000000000000, -1.000000000000000000, 0.0000000000000000000 ) ) ;
#182 = DIRECTION ( 'NONE',  ( 3.491481338843133355E-15, -1.224646799147353207E-16, 1.000000000000000000 ) ) ;
#183 = PERSON ( 'UNSPECIFIED', 'UNSPECIFIED', 'UNSPECIFIED', ('UNSPECIFIED'), ('UNSPECIFIED'), ('UNSPECIFIED') ) ;
#184 = DIRECTION ( 'NONE',  ( 4.275831445896958607E-31, 1.000000000000000000, 1.224646799147353207E-16 ) ) ;
#185 = DIRECTION ( 'NONE',  ( 0.0000000000000000000, 1.000000000000000000, 0.0000000000000000000 ) ) ;
#186 = FACE_OUTER_BOUND ( 'NONE', #70, .T. ) ;
#187 = CIRCLE ( 'NONE', #29, 0.6449999999999989075 ) ;
#188 = APPLICATION_CONTEXT ( 'configuration controlled 3d designs of mechanical parts and assemblies' ) ;
#189 = PERSON_AND_ORGANIZATION_ROLE ( 'design_supplier' ) ;
#190 = PERSON_AND_ORGANIZATION_ROLE ( 'design_owner' ) ;
#191 = APPLICATION_PROTOCOL_DEFINITION ( 'international standard', 'config_control_design', 1994, #197 ) ;
#192 = EDGE_LOOP ( 'NONE', ( #88 ) ) ;
#193 = AXIS2_PLACEMENT_3D ( 'NONE', #199, #93, #91 ) ;
#194 = SECURITY_CLASSIFICATION ( '', '', #68 ) ;
#195 = ORIENTED_EDGE ( 'NONE', *, *, #106, .F. ) ;
#196 = CARTESIAN_POINT ( 'NONE',  ( 3.554979281104959053E-14, -1.246918879160576030E-15, 10.18186533479473077 ) ) ;
#197 = APPLICATION_CONTEXT ( 'configuration controlled 3d designs of mechanical parts and assemblies' ) ;
#198 = CYLINDRICAL_SURFACE ( 'NONE', #85, 0.6449999999999997957 ) ;
#199 = CARTESIAN_POINT ( 'NONE',  ( 3.491481338843133355E-14, -1.224646799147353256E-15, 10.00000000000000000 ) ) ;
#200 = FACE_OUTER_BOUND ( 'NONE', #122, .T. ) ;
#201 = CARTESIAN_POINT ( 'NONE',  ( 3.491481338843133355E-14, -1.224646799147353256E-15, 10.00000000000000000 ) ) ;
#202 = PERSON_AND_ORGANIZATION ( #183, #168 ) ;
#203 = CIRCLE ( 'NONE', #120, 0.7499999999999976685 ) ;
#204 = VERTEX_POINT ( 'NONE', #82 ) ;
#205 = PERSON_AND_ORGANIZATION ( #183, #168 ) ;
#206 = ADVANCED_FACE ( 'NONE', ( #43, #127 ), #86, .T. ) ;
#207 = COORDINATED_UNIVERSAL_TIME_OFFSET ( 1, 0, .AHEAD. ) ;
#208 = ORIENTED_EDGE ( 'NONE', *, *, #175, .T. ) ;
#209 = CIRCLE ( 'NONE', #147, 0.7500000000000000000 ) ;
#210 = DATE_AND_TIME ( #57, #81 ) ;
#211 = DESIGN_CONTEXT ( 'detailed design', #197, 'design' ) ;
#212 = ORIENTED_EDGE ( 'NONE', *, *, #108, .T. ) ;
#213 = DIRECTION ( 'NONE',  ( 0.0000000000000000000, 1.000000000000000000, 0.0000000000000000000 ) ) ;
#214 = DIRECTION ( 'NONE',  ( -3.491481338843133355E-15, 1.224646799147353207E-16, -1.000000000000000000 ) ) ;
#215 = DIRECTION ( 'NONE',  ( 3.491481338843133355E-15, -1.224646799147353207E-16, 1.000000000000000000 ) ) ;
#216 = DIRECTION ( 'NONE',  ( -3.491481338843133355E-15, 1.224646799147353207E-16, -1.000000000000000000 ) ) ;
#217 = ADVANCED_FACE ( 'NONE', ( #25 ), #61, .F. ) ;
#218 = VERTEX_POINT ( 'NONE', #165 ) ;
#219 = DIRECTION ( 'NONE',  ( 0.0000000000000000000, 0.0000000000000000000, 1.000000000000000000 ) ) ;
#220 = CALENDAR_DATE ( 2021, 8, 10 ) ;
#221 = APPROVAL ( #34, 'UNSPECIFIED' ) ;
#222 = APPROVAL_ROLE ( '' ) ;
#223 = AXIS2_PLACEMENT_3D ( 'NONE', #201, #166, #185 ) ;
ENDSEC;
END-ISO-10303-21;
