ISO-10303-21;
HEADER;
FILE_DESCRIPTION (( 'STEP AP203' ),
    '1' );
FILE_NAME ('958035.step',
    '2021-10-08T05:54:21',
    ( '' ),
    ( '' ),
    'SwSTEP 2.0',
    'SolidWorks 2019',
    '' );
FILE_SCHEMA (( 'CONFIG_CONTROL_DESIGN' ));
ENDSEC;

DATA;
#1 = APPLICATION_CONTEXT ( 'configuration controlled 3d designs of mechanical parts and assemblies' ) ;
#2 = APPROVAL ( #214, 'UNSPECIFIED' ) ;
#3 = PERSON_AND_ORGANIZATION_ROLE ( 'classification_officer' ) ;
#4 = CIRCLE ( 'NONE', #205, 0.6450000000000004619 ) ;
#5 = DIRECTION ( 'NONE',  ( 3.491481338843133355E-15, -1.224646799147353207E-16, 1.000000000000000000 ) ) ;
#6 = ORIENTED_EDGE ( 'NONE', *, *, #213, .T. ) ;
#7 = DIRECTION ( 'NONE',  ( -3.491481338843133355E-15, 1.224646799147353207E-16, -1.000000000000000000 ) ) ;
#8 = EDGE_CURVE ( 'NONE', #91, #91, #81, .T. ) ;
#9 = CONICAL_SURFACE ( 'NONE', #116, 0.5500000000000000444, 0.7853981633974516097 ) ;
#10 = DIRECTION ( 'NONE',  ( 3.491481338843133355E-15, -1.224646799147353207E-16, 1.000000000000000000 ) ) ;
#11 = DIRECTION ( 'NONE',  ( -3.491481338843133355E-15, 1.224646799147353207E-16, -1.000000000000000000 ) ) ;
#12 = CARTESIAN_POINT ( 'NONE',  ( 3.554979281104959053E-14, 0.7499999999999963363, 10.18186533479473077 ) ) ;
#13 = CC_DESIGN_PERSON_AND_ORGANIZATION_ASSIGNMENT ( #40, #108, ( #104 ) ) ;
#14 = CC_DESIGN_APPROVAL ( #22, ( #172 ) ) ;
#15 = PRODUCT ( '958035', '958035', '', ( #143 ) ) ;
#16 = ORIENTED_EDGE ( 'NONE', *, *, #84, .F. ) ;
#17 = APPROVAL_STATUS ( 'not_yet_approved' ) ;
#18 = CC_DESIGN_SECURITY_CLASSIFICATION ( #172, ( #93 ) ) ;
#19 = COORDINATED_UNIVERSAL_TIME_OFFSET ( 1, 0, .AHEAD. ) ;
#20 = CARTESIAN_POINT ( 'NONE',  ( 3.491481338843133355E-14, -1.224646799147353256E-15, 10.00000000000000000 ) ) ;
#21 = CARTESIAN_POINT ( 'NONE',  ( 1.040461438975253740E-13, -3.649447461459112464E-15, 29.80000000000000071 ) ) ;
#22 = APPROVAL ( #17, 'UNSPECIFIED' ) ;
#23 = FACE_OUTER_BOUND ( 'NONE', #222, .T. ) ;
#24 = DATE_AND_TIME ( #171, #77 ) ;
#25 = VERTEX_POINT ( 'NONE', #109 ) ;
#26 = COORDINATED_UNIVERSAL_TIME_OFFSET ( 1, 0, .AHEAD. ) ;
#27 = CC_DESIGN_APPROVAL ( #193, ( #104 ) ) ;
#28 = ORIENTED_EDGE ( 'NONE', *, *, #83, .F. ) ;
#29 = PERSON_AND_ORGANIZATION ( #31, #135 ) ;
#30 = CARTESIAN_POINT ( 'NONE',  ( 1.300195960599319366E-15, -4.560473526517144132E-17, 0.3723909236273122980 ) ) ;
#31 = PERSON ( 'UNSPECIFIED', 'UNSPECIFIED', 'UNSPECIFIED', ('UNSPECIFIED'), ('UNSPECIFIED'), ('UNSPECIFIED') ) ;
#32 =( GEOMETRIC_REPRESENTATION_CONTEXT ( 3 ) GLOBAL_UNCERTAINTY_ASSIGNED_CONTEXT ( ( #52 ) ) GLOBAL_UNIT_ASSIGNED_CONTEXT ( ( #192, #159, #197 ) ) REPRESENTATION_CONTEXT ( 'NONE', 'WORKASPACE' ) );
#33 = EDGE_CURVE ( 'NONE', #25, #25, #211, .T. ) ;
#34 = DIRECTION ( 'NONE',  ( -3.491481338843133355E-15, 1.224646799147353207E-16, -1.000000000000000000 ) ) ;
#35 = DIRECTION ( 'NONE',  ( 0.0000000000000000000, 1.000000000000000000, 0.0000000000000000000 ) ) ;
#36 = CC_DESIGN_PERSON_AND_ORGANIZATION_ASSIGNMENT ( #29, #183, ( #93 ) ) ;
#37 = AXIS2_PLACEMENT_3D ( 'NONE', #107, #5, #66 ) ;
#38 = PLANE ( 'NONE',  #37 ) ;
#39 = CYLINDRICAL_SURFACE ( 'NONE', #190, 0.6449999999999997957 ) ;
#40 = PERSON_AND_ORGANIZATION ( #31, #135 ) ;
#41 = PRODUCT_DEFINITION_SHAPE ( 'NONE', 'NONE',  #104 ) ;
#42 = CONICAL_SURFACE ( 'NONE', #199, 0.6449999999999989075, 1.047197551196592746 ) ;
#43 = ORIENTED_EDGE ( 'NONE', *, *, #8, .T. ) ;
#44 = ORIENTED_EDGE ( 'NONE', *, *, #33, .F. ) ;
#45 = DATE_TIME_ROLE ( 'classification_date' ) ;
#46 = CC_DESIGN_PERSON_AND_ORGANIZATION_ASSIGNMENT ( #217, #59, ( #15 ) ) ;
#47 = CONICAL_SURFACE ( 'NONE', #73, 0.7499999999999976685, 0.5235987755982922653 ) ;
#48 = DIRECTION ( 'NONE',  ( 0.0000000000000000000, 1.000000000000000000, 0.0000000000000000000 ) ) ;
#49 = ADVANCED_FACE ( 'NONE', ( #53 ), #85, .F. ) ;
#50 = CARTESIAN_POINT ( 'NONE',  ( 1.047444401652940007E-13, 4.124339402320052999E-33, 30.00000000000000000 ) ) ;
#51 = APPROVAL_PERSON_ORGANIZATION ( #111, #193, #72 ) ;
#52 = UNCERTAINTY_MEASURE_WITH_UNIT (LENGTH_MEASURE( 1.000000000000000082E-05 ), #192, 'distance_accuracy_value', 'NONE');
#53 = FACE_OUTER_BOUND ( 'NONE', #163, .T. ) ;
#54 = CARTESIAN_POINT ( 'NONE',  ( 3.491481338843133355E-14, 4.836725299084476827E-33, 10.00000000000000000 ) ) ;
#55 = DIRECTION ( 'NONE',  ( 3.491481338843133355E-15, -1.224646799147353207E-16, 1.000000000000000000 ) ) ;
#56 = AXIS2_PLACEMENT_3D ( 'NONE', #20, #34, #133 ) ;
#57 = FACE_OUTER_BOUND ( 'NONE', #98, .T. ) ;
#58 = CARTESIAN_POINT ( 'NONE',  ( 1.040461438975253740E-13, 0.7499999999999964473, 29.80000000000000071 ) ) ;
#59 = PERSON_AND_ORGANIZATION_ROLE ( 'design_owner' ) ;
#60 = ADVANCED_FACE ( 'NONE', ( #23 ), #42, .T. ) ;
#61 = ORIENTED_EDGE ( 'NONE', *, *, #8, .F. ) ;
#62 = EDGE_LOOP ( 'NONE', ( #44 ) ) ;
#63 = LOCAL_TIME ( 7, 54, 21.00000000000000000, #140 ) ;
#64 = EDGE_LOOP ( 'NONE', ( #131 ) ) ;
#65 = AXIS2_PLACEMENT_3D ( 'NONE', #128, #142, #75 ) ;
#66 = DIRECTION ( 'NONE',  ( -4.275831445896958607E-31, -1.000000000000000000, -1.224646799147353207E-16 ) ) ;
#67 = CARTESIAN_POINT ( 'NONE',  ( 1.047444401652940007E-13, -3.673940397442059178E-15, 30.00000000000000000 ) ) ;
#68 = CARTESIAN_POINT ( 'NONE',  ( 3.491481338843133355E-14, -1.224646799147353256E-15, 10.00000000000000000 ) ) ;
#69 = LOCAL_TIME ( 7, 54, 21.00000000000000000, #194 ) ;
#70 = CYLINDRICAL_SURFACE ( 'NONE', #165, 0.7499999999999988898 ) ;
#71 = FACE_OUTER_BOUND ( 'NONE', #176, .T. ) ;
#72 = APPROVAL_ROLE ( '' ) ;
#73 = AXIS2_PLACEMENT_3D ( 'NONE', #90, #55, #156 ) ;
#74 = DIRECTION ( 'NONE',  ( -3.491481338843133355E-15, 1.224646799147353207E-16, -1.000000000000000000 ) ) ;
#75 = DIRECTION ( 'NONE',  ( 1.000000000000000000, 0.0000000000000000000, 0.0000000000000000000 ) ) ;
#76 = CC_DESIGN_PERSON_AND_ORGANIZATION_ASSIGNMENT ( #180, #178, ( #93 ) ) ;
#77 = LOCAL_TIME ( 7, 54, 21.00000000000000000, #26 ) ;
#78 = FACE_OUTER_BOUND ( 'NONE', #62, .T. ) ;
#79 = PERSON_AND_ORGANIZATION ( #31, #135 ) ;
#80 = APPROVAL_DATE_TIME ( #96, #22 ) ;
#81 = CIRCLE ( 'NONE', #153, 0.7500000000000001110 ) ;
#82 = APPROVAL_PERSON_ORGANIZATION ( #99, #22, #115 ) ;
#83 = EDGE_CURVE ( 'NONE', #157, #157, #182, .T. ) ;
#84 = EDGE_CURVE ( 'NONE', #173, #173, #4, .T. ) ;
#85 = PLANE ( 'NONE',  #148 ) ;
#86 = AXIS2_PLACEMENT_3D ( 'NONE', #30, #168, #187 ) ;
#87 = DIRECTION ( 'NONE',  ( 3.491481338843133355E-15, -1.224646799147353207E-16, 1.000000000000000000 ) ) ;
#88 = DIRECTION ( 'NONE',  ( 0.0000000000000000000, 1.000000000000000000, 0.0000000000000000000 ) ) ;
#89 = FACE_OUTER_BOUND ( 'NONE', #161, .T. ) ;
#90 = CARTESIAN_POINT ( 'NONE',  ( 3.554979281104959053E-14, -1.246918879160576030E-15, 10.18186533479473077 ) ) ;
#91 = VERTEX_POINT ( 'NONE', #58 ) ;
#92 = PERSON_AND_ORGANIZATION ( #31, #135 ) ;
#93 = PRODUCT_DEFINITION_FORMATION_WITH_SPECIFIED_SOURCE ( 'ANY', '', #15, .NOT_KNOWN. ) ;
#94 = CARTESIAN_POINT ( 'NONE',  ( 3.491481338843133355E-14, 0.6449999999999993516, 10.00000000000000000 ) ) ;
#95 = VERTEX_POINT ( 'NONE', #125 ) ;
#96 = DATE_AND_TIME ( #129, #206 ) ;
#97 = DATE_AND_TIME ( #198, #69 ) ;
#98 = EDGE_LOOP ( 'NONE', ( #6 ) ) ;
#99 = PERSON_AND_ORGANIZATION ( #31, #135 ) ;
#100 = CARTESIAN_POINT ( 'NONE',  ( 3.554979281104959053E-14, -1.246918879160576030E-15, 10.18186533479473077 ) ) ;
#101 = CIRCLE ( 'NONE', #218, 0.5500000000000000444 ) ;
#102 = FACE_OUTER_BOUND ( 'NONE', #200, .T. ) ;
#103 = DIRECTION ( 'NONE',  ( -3.491481338843133355E-15, 1.224646799147353207E-16, -1.000000000000000000 ) ) ;
#104 = PRODUCT_DEFINITION ( 'UNKNOWN', '', #93, #167 ) ;
#105 = PLANE ( 'NONE',  #202 ) ;
#106 = LOCAL_TIME ( 7, 54, 21.00000000000000000, #160 ) ;
#107 = CARTESIAN_POINT ( 'NONE',  ( 3.491481338843133355E-14, 4.836725299084476827E-33, 10.00000000000000000 ) ) ;
#108 = PERSON_AND_ORGANIZATION_ROLE ( 'creator' ) ;
#109 = CARTESIAN_POINT ( 'NONE',  ( 1.300195960599319563E-15, 0.6449999999999989075, 0.3723909236273123535 ) ) ;
#110 = DIRECTION ( 'NONE',  ( 4.275831445896957731E-31, 1.000000000000000000, 1.224646799147353207E-16 ) ) ;
#111 = PERSON_AND_ORGANIZATION ( #31, #135 ) ;
#112 = MANIFOLD_SOLID_BREP ( 'Corps-Déplacer/Copier1[1]', #139 ) ;
#113 = CARTESIAN_POINT ( 'NONE',  ( 3.491481338843133355E-14, 0.6449999999999993516, 10.00000000000000000 ) ) ;
#114 = EDGE_LOOP ( 'NONE', ( #179 ) ) ;
#115 = APPROVAL_ROLE ( '' ) ;
#116 = AXIS2_PLACEMENT_3D ( 'NONE', #170, #186, #138 ) ;
#117 = EDGE_CURVE ( 'NONE', #95, #95, #101, .T. ) ;
#118 = MANIFOLD_SOLID_BREP ( 'Corps-Déplacer/Copier1[2]', #146 ) ;
#119 = FACE_OUTER_BOUND ( 'NONE', #210, .T. ) ;
#120 = APPROVAL_PERSON_ORGANIZATION ( #92, #2, #126 ) ;
#121 = DIRECTION ( 'NONE',  ( -3.491481338843133355E-15, 1.224646799147353207E-16, -1.000000000000000000 ) ) ;
#122 = DIRECTION ( 'NONE',  ( 4.275831445896959482E-31, 1.000000000000000000, 1.224646799147353207E-16 ) ) ;
#123 = FACE_OUTER_BOUND ( 'NONE', #136, .T. ) ;
#124 = ADVANCED_FACE ( 'NONE', ( #166 ), #105, .F. ) ;
#125 = CARTESIAN_POINT ( 'NONE',  ( 1.047444401652940007E-13, 0.5499999999999963807, 30.00000000000000000 ) ) ;
#126 = APPROVAL_ROLE ( '' ) ;
#127 = APPROVAL_DATE_TIME ( #212, #193 ) ;
#128 = CARTESIAN_POINT ( 'NONE',  ( 0.0000000000000000000, 0.0000000000000000000, 0.0000000000000000000 ) ) ;
#129 = CALENDAR_DATE ( 2021, 8, 10 ) ;
#130 = ADVANCED_FACE ( 'NONE', ( #119, #191 ), #9, .T. ) ;
#131 = ORIENTED_EDGE ( 'NONE', *, *, #117, .F. ) ;
#132 = APPROVAL_DATE_TIME ( #97, #2 ) ;
#133 = DIRECTION ( 'NONE',  ( 0.0000000000000000000, 1.000000000000000000, 0.0000000000000000000 ) ) ;
#134 = DIRECTION ( 'NONE',  ( -3.491481338843133355E-15, 1.224646799147353207E-16, -1.000000000000000000 ) ) ;
#135 = ORGANIZATION ( 'UNSPECIFIED', 'UNSPECIFIED', '' ) ;
#136 = EDGE_LOOP ( 'NONE', ( #28 ) ) ;
#137 = CARTESIAN_POINT ( 'NONE',  ( 0.0000000000000000000, 0.0000000000000000000, 0.0000000000000000000 ) ) ;
#138 = DIRECTION ( 'NONE',  ( 0.0000000000000000000, 1.000000000000000000, 0.0000000000000000000 ) ) ;
#139 = CLOSED_SHELL ( 'NONE', ( #49, #181, #155, #130, #124 ) ) ;
#140 = COORDINATED_UNIVERSAL_TIME_OFFSET ( 1, 0, .AHEAD. ) ;
#141 = AXIS2_PLACEMENT_3D ( 'NONE', #100, #7, #35 ) ;
#142 = DIRECTION ( 'NONE',  ( 0.0000000000000000000, 0.0000000000000000000, 1.000000000000000000 ) ) ;
#143 = MECHANICAL_CONTEXT ( 'NONE', #201, 'mechanical' ) ;
#144 = ADVANCED_BREP_SHAPE_REPRESENTATION ( '958035', ( #112, #118, #65 ), #32 ) ;
#145 = APPLICATION_PROTOCOL_DEFINITION ( 'international standard', 'config_control_design', 1994, #201 ) ;
#146 = CLOSED_SHELL ( 'NONE', ( #60, #216, #208 ) ) ;
#147 = CC_DESIGN_APPROVAL ( #2, ( #93 ) ) ;
#148 = AXIS2_PLACEMENT_3D ( 'NONE', #54, #87, #149 ) ;
#149 = DIRECTION ( 'NONE',  ( -4.275831445896958607E-31, -1.000000000000000000, -1.224646799147353207E-16 ) ) ;
#150 = EDGE_LOOP ( 'NONE', ( #16 ) ) ;
#151 = CC_DESIGN_PERSON_AND_ORGANIZATION_ASSIGNMENT ( #79, #3, ( #172 ) ) ;
#152 = DIRECTION ( 'NONE',  ( -2.985937898274789353E-31, -1.000000000000000000, -8.404668003763614577E-17 ) ) ;
#153 = AXIS2_PLACEMENT_3D ( 'NONE', #21, #121, #88 ) ;
#154 = ORIENTED_EDGE ( 'NONE', *, *, #83, .T. ) ;
#155 = ADVANCED_FACE ( 'NONE', ( #123, #89 ), #70, .T. ) ;
#156 = DIRECTION ( 'NONE',  ( 0.0000000000000000000, -1.000000000000000000, 0.0000000000000000000 ) ) ;
#157 = VERTEX_POINT ( 'NONE', #12 ) ;
#158 = APPLICATION_PROTOCOL_DEFINITION ( 'international standard', 'config_control_design', 1994, #1 ) ;
#159 =( NAMED_UNIT ( * ) PLANE_ANGLE_UNIT ( ) SI_UNIT ( $, .RADIAN. ) );
#160 = COORDINATED_UNIVERSAL_TIME_OFFSET ( 1, 0, .AHEAD. ) ;
#161 = EDGE_LOOP ( 'NONE', ( #43 ) ) ;
#162 = ORIENTED_EDGE ( 'NONE', *, *, #84, .T. ) ;
#163 = EDGE_LOOP ( 'NONE', ( #162 ) ) ;
#164 = SECURITY_CLASSIFICATION_LEVEL ( 'unclassified' ) ;
#165 = AXIS2_PLACEMENT_3D ( 'NONE', #137, #209, #122 ) ;
#166 = FACE_OUTER_BOUND ( 'NONE', #64, .T. ) ;
#167 = DESIGN_CONTEXT ( 'detailed design', #1, 'design' ) ;
#168 = DIRECTION ( 'NONE',  ( -3.491481338843133355E-15, 1.224646799147353207E-16, -1.000000000000000000 ) ) ;
#169 = DIRECTION ( 'NONE',  ( 4.275831445896958607E-31, 1.000000000000000000, 1.224646799147353207E-16 ) ) ;
#170 = CARTESIAN_POINT ( 'NONE',  ( 1.047444401652940007E-13, -3.673940397442059178E-15, 30.00000000000000000 ) ) ;
#171 = CALENDAR_DATE ( 2021, 8, 10 ) ;
#172 = SECURITY_CLASSIFICATION ( '', '', #164 ) ;
#173 = VERTEX_POINT ( 'NONE', #94 ) ;
#174 = DATE_TIME_ROLE ( 'creation_date' ) ;
#175 = CC_DESIGN_DATE_AND_TIME_ASSIGNMENT ( #24, #174, ( #104 ) ) ;
#176 = EDGE_LOOP ( 'NONE', ( #184 ) ) ;
#177 = CALENDAR_DATE ( 2021, 8, 10 ) ;
#178 = PERSON_AND_ORGANIZATION_ROLE ( 'creator' ) ;
#179 = ORIENTED_EDGE ( 'NONE', *, *, #117, .T. ) ;
#180 = PERSON_AND_ORGANIZATION ( #31, #135 ) ;
#181 = ADVANCED_FACE ( 'NONE', ( #188, #102 ), #47, .T. ) ;
#182 = CIRCLE ( 'NONE', #141, 0.7499999999999976685 ) ;
#183 = PERSON_AND_ORGANIZATION_ROLE ( 'design_supplier' ) ;
#184 = ORIENTED_EDGE ( 'NONE', *, *, #213, .F. ) ;
#185 = CIRCLE ( 'NONE', #56, 0.6450000000000004619 ) ;
#186 = DIRECTION ( 'NONE',  ( -3.491481338843133355E-15, 1.224646799147353207E-16, -1.000000000000000000 ) ) ;
#187 = DIRECTION ( 'NONE',  ( 2.985937898274789353E-31, 1.000000000000000000, 8.404668003763614577E-17 ) ) ;
#188 = FACE_BOUND ( 'NONE', #150, .T. ) ;
#189 = PRODUCT_RELATED_PRODUCT_CATEGORY ( 'detail', '', ( #15 ) ) ;
#190 = AXIS2_PLACEMENT_3D ( 'NONE', #195, #74, #110 ) ;
#191 = FACE_BOUND ( 'NONE', #114, .T. ) ;
#192 =( LENGTH_UNIT ( ) NAMED_UNIT ( * ) SI_UNIT ( .MILLI., .METRE. ) );
#193 = APPROVAL ( #215, 'UNSPECIFIED' ) ;
#194 = COORDINATED_UNIVERSAL_TIME_OFFSET ( 1, 0, .AHEAD. ) ;
#195 = CARTESIAN_POINT ( 'NONE',  ( 0.0000000000000000000, 0.0000000000000000000, 0.0000000000000000000 ) ) ;
#196 = CALENDAR_DATE ( 2021, 8, 10 ) ;
#197 =( NAMED_UNIT ( * ) SI_UNIT ( $, .STERADIAN. ) SOLID_ANGLE_UNIT ( ) );
#198 = CALENDAR_DATE ( 2021, 8, 10 ) ;
#199 = AXIS2_PLACEMENT_3D ( 'NONE', #207, #10, #152 ) ;
#200 = EDGE_LOOP ( 'NONE', ( #154 ) ) ;
#201 = APPLICATION_CONTEXT ( 'configuration controlled 3d designs of mechanical parts and assemblies' ) ;
#202 = AXIS2_PLACEMENT_3D ( 'NONE', #50, #11, #169 ) ;
#203 = CC_DESIGN_DATE_AND_TIME_ASSIGNMENT ( #223, #45, ( #172 ) ) ;
#204 = DIRECTION ( 'NONE',  ( 0.0000000000000000000, 1.000000000000000000, 0.0000000000000000000 ) ) ;
#205 = AXIS2_PLACEMENT_3D ( 'NONE', #68, #103, #48 ) ;
#206 = LOCAL_TIME ( 7, 54, 21.00000000000000000, #19 ) ;
#207 = CARTESIAN_POINT ( 'NONE',  ( 1.300195960599319366E-15, -4.560473526517144132E-17, 0.3723909236273122980 ) ) ;
#208 = ADVANCED_FACE ( 'NONE', ( #71 ), #38, .T. ) ;
#209 = DIRECTION ( 'NONE',  ( -3.491481338843133355E-15, 1.224646799147353207E-16, -1.000000000000000000 ) ) ;
#210 = EDGE_LOOP ( 'NONE', ( #61 ) ) ;
#211 = CIRCLE ( 'NONE', #86, 0.6449999999999989075 ) ;
#212 = DATE_AND_TIME ( #196, #63 ) ;
#213 = EDGE_CURVE ( 'NONE', #219, #219, #185, .T. ) ;
#214 = APPROVAL_STATUS ( 'not_yet_approved' ) ;
#215 = APPROVAL_STATUS ( 'not_yet_approved' ) ;
#216 = ADVANCED_FACE ( 'NONE', ( #78, #57 ), #39, .T. ) ;
#217 = PERSON_AND_ORGANIZATION ( #31, #135 ) ;
#218 = AXIS2_PLACEMENT_3D ( 'NONE', #67, #134, #204 ) ;
#219 = VERTEX_POINT ( 'NONE', #113 ) ;
#220 = ORIENTED_EDGE ( 'NONE', *, *, #33, .T. ) ;
#221 = SHAPE_DEFINITION_REPRESENTATION ( #41, #144 ) ;
#222 = EDGE_LOOP ( 'NONE', ( #220 ) ) ;
#223 = DATE_AND_TIME ( #177, #106 ) ;
ENDSEC;
END-ISO-10303-21;
