ISO-10303-21;
HEADER;
FILE_DESCRIPTION (( 'STEP AP203' ),
    '1' );
FILE_NAME ('958033.step',
    '2021-10-08T08:13:20',
    ( '' ),
    ( '' ),
    'SwSTEP 2.0',
    'SolidWorks 2019',
    '' );
FILE_SCHEMA (( 'CONFIG_CONTROL_DESIGN' ));
ENDSEC;

DATA;
#1 = PRODUCT_DEFINITION_FORMATION_WITH_SPECIFIED_SOURCE ( 'ANY', '', #181, .NOT_KNOWN. ) ;
#2 = CIRCLE ( 'NONE', #125, 0.7499999999999976685 ) ;
#3 = AXIS2_PLACEMENT_3D ( 'NONE', #173, #20, #80 ) ;
#4 = PLANE ( 'NONE',  #101 ) ;
#5 = APPROVAL_STATUS ( 'not_yet_approved' ) ;
#6 = APPROVAL ( #193, 'UNSPECIFIED' ) ;
#7 = EDGE_LOOP ( 'NONE', ( #109 ) ) ;
#8 = ADVANCED_FACE ( 'NONE', ( #124, #209 ), #175, .T. ) ;
#9 = DIRECTION ( 'NONE',  ( 3.491481338843133355E-15, -1.224646799147353207E-16, 1.000000000000000000 ) ) ;
#10 = CALENDAR_DATE ( 2021, 8, 10 ) ;
#11 = CARTESIAN_POINT ( 'NONE',  ( 3.558002992641237188E-14, 0.7499999999999963363, 10.19052558883257475 ) ) ;
#12 = DIRECTION ( 'NONE',  ( 0.0000000000000000000, 1.000000000000000000, 0.0000000000000000000 ) ) ;
#13 = FACE_OUTER_BOUND ( 'NONE', #7, .T. ) ;
#14 = CARTESIAN_POINT ( 'NONE',  ( 3.491481338843133355E-14, 0.6399999999999999023, 10.00000000000000000 ) ) ;
#15 = DIRECTION ( 'NONE',  ( 4.275831445896958607E-31, 1.000000000000000000, 1.224646799147353207E-16 ) ) ;
#16 = CC_DESIGN_DATE_AND_TIME_ASSIGNMENT ( #68, #56, ( #19 ) ) ;
#17 = DIRECTION ( 'NONE',  ( 0.0000000000000000000, 1.000000000000000000, 0.0000000000000000000 ) ) ;
#18 = DIRECTION ( 'NONE',  ( 3.491481338843133355E-15, -1.224646799147353207E-16, 1.000000000000000000 ) ) ;
#19 = SECURITY_CLASSIFICATION ( '', '', #104 ) ;
#20 = DIRECTION ( 'NONE',  ( -3.491481338843133355E-15, 1.224646799147353207E-16, -1.000000000000000000 ) ) ;
#21 = ORIENTED_EDGE ( 'NONE', *, *, #73, .F. ) ;
#22 = PERSON_AND_ORGANIZATION_ROLE ( 'design_supplier' ) ;
#23 = CARTESIAN_POINT ( 'NONE',  ( 3.558002992641237188E-14, -1.247979454399301074E-15, 10.19052558883257475 ) ) ;
#24 = ORIENTED_EDGE ( 'NONE', *, *, #134, .T. ) ;
#25 = ORIENTED_EDGE ( 'NONE', *, *, #70, .F. ) ;
#26 = CARTESIAN_POINT ( 'NONE',  ( 3.491481338843133355E-14, 4.799231304517935587E-33, 10.00000000000000000 ) ) ;
#27 = MECHANICAL_CONTEXT ( 'NONE', #53, 'mechanical' ) ;
#28 = CARTESIAN_POINT ( 'NONE',  ( 1.040461438975253740E-13, -3.649447461459112464E-15, 29.80000000000000071 ) ) ;
#29 = EDGE_CURVE ( 'NONE', #67, #67, #137, .T. ) ;
#30 = DIRECTION ( 'NONE',  ( 1.000000000000000000, 0.0000000000000000000, 0.0000000000000000000 ) ) ;
#31 = DIRECTION ( 'NONE',  ( 0.0000000000000000000, 1.000000000000000000, 0.0000000000000000000 ) ) ;
#32 = AXIS2_PLACEMENT_3D ( 'NONE', #135, #206, #103 ) ;
#33 = CARTESIAN_POINT ( 'NONE',  ( 1.040461438975253740E-13, 0.7499999999999963363, 29.80000000000000071 ) ) ;
#34 = DIRECTION ( 'NONE',  ( -3.491481338843133355E-15, 1.224646799147353207E-16, -1.000000000000000000 ) ) ;
#35 = ADVANCED_FACE ( 'NONE', ( #50 ), #61, .T. ) ;
#36 = CARTESIAN_POINT ( 'NONE',  ( 3.491481338843133355E-14, -1.224646799147353256E-15, 10.00000000000000000 ) ) ;
#37 = AXIS2_PLACEMENT_3D ( 'NONE', #28, #100, #12 ) ;
#38 = EDGE_CURVE ( 'NONE', #182, #182, #54, .T. ) ;
#39 = FACE_OUTER_BOUND ( 'NONE', #44, .T. ) ;
#40 = PERSON_AND_ORGANIZATION ( #157, #170 ) ;
#41 = EDGE_LOOP ( 'NONE', ( #198 ) ) ;
#42 = PERSON_AND_ORGANIZATION_ROLE ( 'creator' ) ;
#43 = AXIS2_PLACEMENT_3D ( 'NONE', #102, #111, #145 ) ;
#44 = EDGE_LOOP ( 'NONE', ( #213 ) ) ;
#45 = EDGE_LOOP ( 'NONE', ( #122 ) ) ;
#46 = DATE_TIME_ROLE ( 'creation_date' ) ;
#47 = DIRECTION ( 'NONE',  ( -3.491481338843133355E-15, 1.224646799147353207E-16, -1.000000000000000000 ) ) ;
#48 =( LENGTH_UNIT ( ) NAMED_UNIT ( * ) SI_UNIT ( .MILLI., .METRE. ) );
#49 = MANIFOLD_SOLID_BREP ( 'Corps-Déplacer/Copier1[1]', #164 ) ;
#50 = FACE_OUTER_BOUND ( 'NONE', #110, .T. ) ;
#51 = PRODUCT_RELATED_PRODUCT_CATEGORY ( 'detail', '', ( #181 ) ) ;
#52 = ADVANCED_FACE ( 'NONE', ( #118, #166 ), #205, .T. ) ;
#53 = APPLICATION_CONTEXT ( 'configuration controlled 3d designs of mechanical parts and assemblies' ) ;
#54 = CIRCLE ( 'NONE', #194, 0.6400000000000011235 ) ;
#55 = AXIS2_PLACEMENT_3D ( 'NONE', #163, #149, #69 ) ;
#56 = DATE_TIME_ROLE ( 'classification_date' ) ;
#57 = ADVANCED_BREP_SHAPE_REPRESENTATION ( '958033', ( #49, #197, #212 ), #117 ) ;
#58 = CC_DESIGN_PERSON_AND_ORGANIZATION_ASSIGNMENT ( #114, #83, ( #19 ) ) ;
#59 = LOCAL_TIME ( 10, 13, 20.00000000000000000, #185 ) ;
#60 = PERSON_AND_ORGANIZATION ( #157, #170 ) ;
#61 = CONICAL_SURFACE ( 'NONE', #108, 0.6399999999999989031, 1.047197551196592746 ) ;
#62 = DATE_AND_TIME ( #94, #59 ) ;
#63 = PRODUCT_DEFINITION_SHAPE ( 'NONE', 'NONE',  #86 ) ;
#64 = APPLICATION_PROTOCOL_DEFINITION ( 'international standard', 'config_control_design', 1994, #53 ) ;
#65 = SHAPE_DEFINITION_REPRESENTATION ( #63, #57 ) ;
#66 = DIRECTION ( 'NONE',  ( 3.491481338843133355E-15, -1.224646799147353207E-16, 1.000000000000000000 ) ) ;
#67 = VERTEX_POINT ( 'NONE', #165 ) ;
#68 = DATE_AND_TIME ( #220, #142 ) ;
#69 = DIRECTION ( 'NONE',  ( 3.009265538105061275E-31, 1.000000000000000000, 8.470329472543018182E-17 ) ) ;
#70 = EDGE_CURVE ( 'NONE', #84, #84, #136, .T. ) ;
#71 = APPLICATION_CONTEXT ( 'configuration controlled 3d designs of mechanical parts and assemblies' ) ;
#72 = DIRECTION ( 'NONE',  ( 0.0000000000000000000, 1.000000000000000000, 0.0000000000000000000 ) ) ;
#73 = EDGE_CURVE ( 'NONE', #221, #221, #2, .T. ) ;
#74 = DIRECTION ( 'NONE',  ( -3.491481338843133355E-15, 1.224646799147353207E-16, -1.000000000000000000 ) ) ;
#75 = APPROVAL_ROLE ( '' ) ;
#76 = CALENDAR_DATE ( 2021, 8, 10 ) ;
#77 = EDGE_LOOP ( 'NONE', ( #24 ) ) ;
#78 = CC_DESIGN_PERSON_AND_ORGANIZATION_ASSIGNMENT ( #141, #210, ( #1 ) ) ;
#79 = CC_DESIGN_APPROVAL ( #6, ( #1 ) ) ;
#80 = DIRECTION ( 'NONE',  ( 4.275831445896959482E-31, 1.000000000000000000, 1.224646799147353207E-16 ) ) ;
#81 = CARTESIAN_POINT ( 'NONE',  ( 0.0000000000000000000, 0.0000000000000000000, 0.0000000000000000000 ) ) ;
#82 = DIRECTION ( 'NONE',  ( -3.009265538105061275E-31, -1.000000000000000000, -8.470329472543018182E-17 ) ) ;
#83 = PERSON_AND_ORGANIZATION_ROLE ( 'classification_officer' ) ;
#84 = VERTEX_POINT ( 'NONE', #33 ) ;
#85 = FACE_OUTER_BOUND ( 'NONE', #208, .T. ) ;
#86 = PRODUCT_DEFINITION ( 'UNKNOWN', '', #1, #105 ) ;
#87 = ADVANCED_FACE ( 'NONE', ( #13 ), #144, .F. ) ;
#88 = APPROVAL_PERSON_ORGANIZATION ( #218, #169, #132 ) ;
#89 = CYLINDRICAL_SURFACE ( 'NONE', #3, 0.7499999999999987788 ) ;
#90 = ADVANCED_FACE ( 'NONE', ( #223, #203 ), #219, .T. ) ;
#91 = UNCERTAINTY_MEASURE_WITH_UNIT (LENGTH_MEASURE( 1.000000000000000082E-05 ), #48, 'distance_accuracy_value', 'NONE');
#92 = CC_DESIGN_SECURITY_CLASSIFICATION ( #19, ( #1 ) ) ;
#93 = EDGE_LOOP ( 'NONE', ( #21 ) ) ;
#94 = CALENDAR_DATE ( 2021, 8, 10 ) ;
#95 = CARTESIAN_POINT ( 'NONE',  ( 3.491481338843133355E-14, -1.224646799147353256E-15, 10.00000000000000000 ) ) ;
#96 = APPROVAL_STATUS ( 'not_yet_approved' ) ;
#97 = CC_DESIGN_APPROVAL ( #106, ( #19 ) ) ;
#98 =( NAMED_UNIT ( * ) PLANE_ANGLE_UNIT ( ) SI_UNIT ( $, .RADIAN. ) );
#99 = CLOSED_SHELL ( 'NONE', ( #35, #90, #172 ) ) ;
#100 = DIRECTION ( 'NONE',  ( -3.491481338843133355E-15, 1.224646799147353207E-16, -1.000000000000000000 ) ) ;
#101 = AXIS2_PLACEMENT_3D ( 'NONE', #120, #18, #138 ) ;
#102 = CARTESIAN_POINT ( 'NONE',  ( 1.047444401652940007E-13, 4.124339402320052999E-33, 30.00000000000000000 ) ) ;
#103 = DIRECTION ( 'NONE',  ( 0.0000000000000000000, 1.000000000000000000, 0.0000000000000000000 ) ) ;
#104 = SECURITY_CLASSIFICATION_LEVEL ( 'unclassified' ) ;
#105 = DESIGN_CONTEXT ( 'detailed design', #71, 'design' ) ;
#106 = APPROVAL ( #5, 'UNSPECIFIED' ) ;
#107 = FACE_OUTER_BOUND ( 'NONE', #140, .T. ) ;
#108 = AXIS2_PLACEMENT_3D ( 'NONE', #168, #66, #82 ) ;
#109 = ORIENTED_EDGE ( 'NONE', *, *, #134, .F. ) ;
#110 = EDGE_LOOP ( 'NONE', ( #159 ) ) ;
#111 = DIRECTION ( 'NONE',  ( -3.491481338843133355E-15, 1.224646799147353207E-16, -1.000000000000000000 ) ) ;
#112 = DIRECTION ( 'NONE',  ( 0.0000000000000000000, 1.000000000000000000, 0.0000000000000000000 ) ) ;
#113 = CARTESIAN_POINT ( 'NONE',  ( 1.047444401652940007E-13, -3.673940397442059178E-15, 30.00000000000000000 ) ) ;
#114 = PERSON_AND_ORGANIZATION ( #157, #170 ) ;
#115 = APPLICATION_PROTOCOL_DEFINITION ( 'international standard', 'config_control_design', 1994, #71 ) ;
#116 = CARTESIAN_POINT ( 'NONE',  ( 0.0000000000000000000, 0.0000000000000000000, 0.0000000000000000000 ) ) ;
#117 =( GEOMETRIC_REPRESENTATION_CONTEXT ( 3 ) GLOBAL_UNCERTAINTY_ASSIGNED_CONTEXT ( ( #91 ) ) GLOBAL_UNIT_ASSIGNED_CONTEXT ( ( #48, #98, #160 ) ) REPRESENTATION_CONTEXT ( 'NONE', 'WORKASPACE' ) );
#118 = FACE_OUTER_BOUND ( 'NONE', #128, .T. ) ;
#119 = LOCAL_TIME ( 10, 13, 20.00000000000000000, #139 ) ;
#120 = CARTESIAN_POINT ( 'NONE',  ( 3.491481338843133355E-14, 4.799231304517935587E-33, 10.00000000000000000 ) ) ;
#121 = DATE_AND_TIME ( #156, #119 ) ;
#122 = ORIENTED_EDGE ( 'NONE', *, *, #38, .F. ) ;
#123 = ADVANCED_FACE ( 'NONE', ( #85 ), #180, .F. ) ;
#124 = FACE_BOUND ( 'NONE', #45, .T. ) ;
#125 = AXIS2_PLACEMENT_3D ( 'NONE', #130, #34, #17 ) ;
#126 = AXIS2_PLACEMENT_3D ( 'NONE', #116, #167, #15 ) ;
#127 = COORDINATED_UNIVERSAL_TIME_OFFSET ( 1, 0, .AHEAD. ) ;
#128 = EDGE_LOOP ( 'NONE', ( #25 ) ) ;
#129 = DATE_AND_TIME ( #76, #148 ) ;
#130 = CARTESIAN_POINT ( 'NONE',  ( 3.558002992641237188E-14, -1.247979454399301074E-15, 10.19052558883257475 ) ) ;
#131 = CC_DESIGN_PERSON_AND_ORGANIZATION_ASSIGNMENT ( #60, #42, ( #86 ) ) ;
#132 = APPROVAL_ROLE ( '' ) ;
#133 = PERSON_AND_ORGANIZATION ( #157, #170 ) ;
#134 = EDGE_CURVE ( 'NONE', #202, #202, #186, .T. ) ;
#135 = CARTESIAN_POINT ( 'NONE',  ( 1.047444401652940007E-13, -3.673940397442059178E-15, 30.00000000000000000 ) ) ;
#136 = CIRCLE ( 'NONE', #37, 0.7500000000000000000 ) ;
#137 = CIRCLE ( 'NONE', #55, 0.6399999999999989031 ) ;
#138 = DIRECTION ( 'NONE',  ( -4.275831445896958607E-31, -1.000000000000000000, -1.224646799147353207E-16 ) ) ;
#139 = COORDINATED_UNIVERSAL_TIME_OFFSET ( 1, 0, .AHEAD. ) ;
#140 = EDGE_LOOP ( 'NONE', ( #174 ) ) ;
#141 = PERSON_AND_ORGANIZATION ( #157, #170 ) ;
#142 = LOCAL_TIME ( 10, 13, 20.00000000000000000, #150 ) ;
#143 = VERTEX_POINT ( 'NONE', #146 ) ;
#144 = PLANE ( 'NONE',  #43 ) ;
#145 = DIRECTION ( 'NONE',  ( 4.275831445896958607E-31, 1.000000000000000000, 1.224646799147353207E-16 ) ) ;
#146 = CARTESIAN_POINT ( 'NONE',  ( 3.491481338843133355E-14, 0.6399999999999999023, 10.00000000000000000 ) ) ;
#147 = DIRECTION ( 'NONE',  ( 3.491481338843133355E-15, -1.224646799147353207E-16, 1.000000000000000000 ) ) ;
#148 = LOCAL_TIME ( 10, 13, 20.00000000000000000, #127 ) ;
#149 = DIRECTION ( 'NONE',  ( -3.491481338843133355E-15, 1.224646799147353207E-16, -1.000000000000000000 ) ) ;
#150 = COORDINATED_UNIVERSAL_TIME_OFFSET ( 1, 0, .AHEAD. ) ;
#151 = AXIS2_PLACEMENT_3D ( 'NONE', #26, #147, #187 ) ;
#152 = AXIS2_PLACEMENT_3D ( 'NONE', #113, #201, #112 ) ;
#153 = EDGE_CURVE ( 'NONE', #143, #143, #196, .T. ) ;
#154 = PERSON_AND_ORGANIZATION ( #157, #170 ) ;
#155 = ORIENTED_EDGE ( 'NONE', *, *, #38, .T. ) ;
#156 = CALENDAR_DATE ( 2021, 8, 10 ) ;
#157 = PERSON ( 'UNSPECIFIED', 'UNSPECIFIED', 'UNSPECIFIED', ('UNSPECIFIED'), ('UNSPECIFIED'), ('UNSPECIFIED') ) ;
#158 = APPROVAL_DATE_TIME ( #62, #169 ) ;
#159 = ORIENTED_EDGE ( 'NONE', *, *, #29, .T. ) ;
#160 =( NAMED_UNIT ( * ) SI_UNIT ( $, .STERADIAN. ) SOLID_ANGLE_UNIT ( ) );
#161 = PERSON_AND_ORGANIZATION ( #157, #170 ) ;
#162 = APPROVAL_DATE_TIME ( #217, #106 ) ;
#163 = CARTESIAN_POINT ( 'NONE',  ( 1.290116922145061018E-15, -4.525121018559646972E-17, 0.3695041722813641183 ) ) ;
#164 = CLOSED_SHELL ( 'NONE', ( #123, #8, #179, #52, #87 ) ) ;
#165 = CARTESIAN_POINT ( 'NONE',  ( 1.290116922145061216E-15, 0.6399999999999989031, 0.3695041722813641738 ) ) ;
#166 = FACE_BOUND ( 'NONE', #77, .T. ) ;
#167 = DIRECTION ( 'NONE',  ( -3.491481338843133355E-15, 1.224646799147353207E-16, -1.000000000000000000 ) ) ;
#168 = CARTESIAN_POINT ( 'NONE',  ( 1.290116922145061018E-15, -4.525121018559646972E-17, 0.3695041722813641183 ) ) ;
#169 = APPROVAL ( #96, 'UNSPECIFIED' ) ;
#170 = ORGANIZATION ( 'UNSPECIFIED', 'UNSPECIFIED', '' ) ;
#171 = AXIS2_PLACEMENT_3D ( 'NONE', #23, #9, #195 ) ;
#172 = ADVANCED_FACE ( 'NONE', ( #107 ), #4, .T. ) ;
#173 = CARTESIAN_POINT ( 'NONE',  ( 0.0000000000000000000, 0.0000000000000000000, 0.0000000000000000000 ) ) ;
#174 = ORIENTED_EDGE ( 'NONE', *, *, #153, .F. ) ;
#175 = CONICAL_SURFACE ( 'NONE', #171, 0.7499999999999976685, 0.5235987755982881575 ) ;
#176 = CC_DESIGN_PERSON_AND_ORGANIZATION_ASSIGNMENT ( #161, #216, ( #181 ) ) ;
#177 = ORIENTED_EDGE ( 'NONE', *, *, #73, .T. ) ;
#178 = EDGE_LOOP ( 'NONE', ( #192 ) ) ;
#179 = ADVANCED_FACE ( 'NONE', ( #189, #39 ), #89, .T. ) ;
#180 = PLANE ( 'NONE',  #151 ) ;
#181 = PRODUCT ( '958033', '958033', '', ( #27 ) ) ;
#182 = VERTEX_POINT ( 'NONE', #14 ) ;
#183 = AXIS2_PLACEMENT_3D ( 'NONE', #95, #74, #72 ) ;
#184 = CC_DESIGN_APPROVAL ( #169, ( #86 ) ) ;
#185 = COORDINATED_UNIVERSAL_TIME_OFFSET ( 1, 0, .AHEAD. ) ;
#186 = CIRCLE ( 'NONE', #32, 0.5500000000000000444 ) ;
#187 = DIRECTION ( 'NONE',  ( -4.275831445896958607E-31, -1.000000000000000000, -1.224646799147353207E-16 ) ) ;
#188 = CC_DESIGN_DATE_AND_TIME_ASSIGNMENT ( #129, #46, ( #86 ) ) ;
#189 = FACE_OUTER_BOUND ( 'NONE', #93, .T. ) ;
#190 = APPROVAL_DATE_TIME ( #121, #6 ) ;
#191 = LOCAL_TIME ( 10, 13, 20.00000000000000000, #215 ) ;
#192 = ORIENTED_EDGE ( 'NONE', *, *, #29, .F. ) ;
#193 = APPROVAL_STATUS ( 'not_yet_approved' ) ;
#194 = AXIS2_PLACEMENT_3D ( 'NONE', #36, #47, #31 ) ;
#195 = DIRECTION ( 'NONE',  ( 0.0000000000000000000, -1.000000000000000000, 0.0000000000000000000 ) ) ;
#196 = CIRCLE ( 'NONE', #183, 0.6400000000000011235 ) ;
#197 = MANIFOLD_SOLID_BREP ( 'Corps-Déplacer/Copier1[2]', #99 ) ;
#198 = ORIENTED_EDGE ( 'NONE', *, *, #153, .T. ) ;
#199 = DIRECTION ( 'NONE',  ( 0.0000000000000000000, 0.0000000000000000000, 1.000000000000000000 ) ) ;
#200 = APPROVAL_ROLE ( '' ) ;
#201 = DIRECTION ( 'NONE',  ( -3.491481338843133355E-15, 1.224646799147353207E-16, -1.000000000000000000 ) ) ;
#202 = VERTEX_POINT ( 'NONE', #204 ) ;
#203 = FACE_OUTER_BOUND ( 'NONE', #41, .T. ) ;
#204 = CARTESIAN_POINT ( 'NONE',  ( 1.047444401652940007E-13, 0.5499999999999963807, 30.00000000000000000 ) ) ;
#205 = CONICAL_SURFACE ( 'NONE', #152, 0.5500000000000000444, 0.7853981633974512766 ) ;
#206 = DIRECTION ( 'NONE',  ( -3.491481338843133355E-15, 1.224646799147353207E-16, -1.000000000000000000 ) ) ;
#207 = CC_DESIGN_PERSON_AND_ORGANIZATION_ASSIGNMENT ( #40, #22, ( #1 ) ) ;
#208 = EDGE_LOOP ( 'NONE', ( #155 ) ) ;
#209 = FACE_OUTER_BOUND ( 'NONE', #211, .T. ) ;
#210 = PERSON_AND_ORGANIZATION_ROLE ( 'creator' ) ;
#211 = EDGE_LOOP ( 'NONE', ( #177 ) ) ;
#212 = AXIS2_PLACEMENT_3D ( 'NONE', #81, #199, #30 ) ;
#213 = ORIENTED_EDGE ( 'NONE', *, *, #70, .T. ) ;
#214 = APPROVAL_PERSON_ORGANIZATION ( #154, #6, #75 ) ;
#215 = COORDINATED_UNIVERSAL_TIME_OFFSET ( 1, 0, .AHEAD. ) ;
#216 = PERSON_AND_ORGANIZATION_ROLE ( 'design_owner' ) ;
#217 = DATE_AND_TIME ( #10, #191 ) ;
#218 = PERSON_AND_ORGANIZATION ( #157, #170 ) ;
#219 = CYLINDRICAL_SURFACE ( 'NONE', #126, 0.6399999999999999023 ) ;
#220 = CALENDAR_DATE ( 2021, 8, 10 ) ;
#221 = VERTEX_POINT ( 'NONE', #11 ) ;
#222 = APPROVAL_PERSON_ORGANIZATION ( #133, #106, #200 ) ;
#223 = FACE_OUTER_BOUND ( 'NONE', #178, .T. ) ;
ENDSEC;
END-ISO-10303-21;
