ISO-10303-21;
HEADER;
FILE_DESCRIPTION (( 'STEP AP203' ),
    '1' );
FILE_NAME ('958032.step',
    '2021-10-08T05:54:20',
    ( '' ),
    ( '' ),
    'SwSTEP 2.0',
    'SolidWorks 2019',
    '' );
FILE_SCHEMA (( 'CONFIG_CONTROL_DESIGN' ));
ENDSEC;

DATA;
#1 = CIRCLE ( 'NONE', #160, 0.6400000000000011235 ) ;
#2 = PERSON_AND_ORGANIZATION_ROLE ( 'creator' ) ;
#3 = APPROVAL_STATUS ( 'not_yet_approved' ) ;
#4 = ORIENTED_EDGE ( 'NONE', *, *, #215, .T. ) ;
#5 = DATE_AND_TIME ( #104, #114 ) ;
#6 = AXIS2_PLACEMENT_3D ( 'NONE', #12, #27, #108 ) ;
#7 = EDGE_LOOP ( 'NONE', ( #159 ) ) ;
#8 = PERSON_AND_ORGANIZATION ( #204, #182 ) ;
#9 = CARTESIAN_POINT ( 'NONE',  ( 3.558002992641237188E-14, -1.247979454399301074E-15, 10.19052558883257475 ) ) ;
#10 = FACE_OUTER_BOUND ( 'NONE', #101, .T. ) ;
#11 = CARTESIAN_POINT ( 'NONE',  ( 3.491481338843133355E-14, -1.224646799147353256E-15, 10.00000000000000000 ) ) ;
#12 = CARTESIAN_POINT ( 'NONE',  ( 0.0000000000000000000, 0.0000000000000000000, 0.0000000000000000000 ) ) ;
#13 = ORIENTED_EDGE ( 'NONE', *, *, #122, .T. ) ;
#14 = ADVANCED_FACE ( 'NONE', ( #164, #80 ), #146, .T. ) ;
#15 = PRODUCT_DEFINITION_SHAPE ( 'NONE', 'NONE',  #75 ) ;
#16 = CARTESIAN_POINT ( 'NONE',  ( 1.047444401652940007E-13, 0.5499999999999963807, 30.00000000000000000 ) ) ;
#17 = AXIS2_PLACEMENT_3D ( 'NONE', #11, #143, #179 ) ;
#18 = PERSON_AND_ORGANIZATION_ROLE ( 'classification_officer' ) ;
#19 = APPROVAL_ROLE ( '' ) ;
#20 = EDGE_LOOP ( 'NONE', ( #4 ) ) ;
#21 = DATE_TIME_ROLE ( 'classification_date' ) ;
#22 = CARTESIAN_POINT ( 'NONE',  ( 1.047444401652940007E-13, -3.673940397442059178E-15, 30.00000000000000000 ) ) ;
#23 = AXIS2_PLACEMENT_3D ( 'NONE', #125, #180, #26 ) ;
#24 = FACE_OUTER_BOUND ( 'NONE', #136, .T. ) ;
#25 = PLANE ( 'NONE',  #134 ) ;
#26 = DIRECTION ( 'NONE',  ( 0.0000000000000000000, 1.000000000000000000, 0.0000000000000000000 ) ) ;
#27 = DIRECTION ( 'NONE',  ( -3.491481338843133355E-15, 1.224646799147353207E-16, -1.000000000000000000 ) ) ;
#28 = AXIS2_PLACEMENT_3D ( 'NONE', #78, #111, #142 ) ;
#29 = PERSON_AND_ORGANIZATION ( #204, #182 ) ;
#30 = CIRCLE ( 'NONE', #185, 0.7500000000000001110 ) ;
#31 = UNCERTAINTY_MEASURE_WITH_UNIT (LENGTH_MEASURE( 1.000000000000000082E-05 ), #147, 'distance_accuracy_value', 'NONE');
#32 = COORDINATED_UNIVERSAL_TIME_OFFSET ( 1, 0, .AHEAD. ) ;
#33 = ORIENTED_EDGE ( 'NONE', *, *, #35, .F. ) ;
#34 = APPLICATION_PROTOCOL_DEFINITION ( 'international standard', 'config_control_design', 1994, #132 ) ;
#35 = EDGE_CURVE ( 'NONE', #168, #168, #30, .T. ) ;
#36 = PERSON_AND_ORGANIZATION_ROLE ( 'design_owner' ) ;
#37 = CYLINDRICAL_SURFACE ( 'NONE', #206, 0.7499999999999988898 ) ;
#38 = DIRECTION ( 'NONE',  ( 0.0000000000000000000, 1.000000000000000000, 0.0000000000000000000 ) ) ;
#39 = CARTESIAN_POINT ( 'NONE',  ( 1.047444401652940007E-13, -3.673940397442059178E-15, 30.00000000000000000 ) ) ;
#40 = PRODUCT ( '958032', '958032', '', ( #153 ) ) ;
#41 = FACE_OUTER_BOUND ( 'NONE', #7, .T. ) ;
#42 = DIRECTION ( 'NONE',  ( -3.491481338843133355E-15, 1.224646799147353207E-16, -1.000000000000000000 ) ) ;
#43 = APPROVAL_PERSON_ORGANIZATION ( #87, #56, #190 ) ;
#44 = APPLICATION_PROTOCOL_DEFINITION ( 'international standard', 'config_control_design', 1994, #198 ) ;
#45 = VERTEX_POINT ( 'NONE', #16 ) ;
#46 = CC_DESIGN_APPROVAL ( #129, ( #75 ) ) ;
#47 = EDGE_LOOP ( 'NONE', ( #117 ) ) ;
#48 = APPROVAL_DATE_TIME ( #102, #129 ) ;
#49 = COORDINATED_UNIVERSAL_TIME_OFFSET ( 1, 0, .AHEAD. ) ;
#50 = AXIS2_PLACEMENT_3D ( 'NONE', #200, #144, #112 ) ;
#51 = LOCAL_TIME ( 7, 54, 20.00000000000000000, #32 ) ;
#52 = EDGE_LOOP ( 'NONE', ( #207 ) ) ;
#53 = ADVANCED_FACE ( 'NONE', ( #163, #181 ), #176, .T. ) ;
#54 = ORIENTED_EDGE ( 'NONE', *, *, #122, .F. ) ;
#55 = CARTESIAN_POINT ( 'NONE',  ( 3.491481338843133355E-14, 4.799231304517935587E-33, 10.00000000000000000 ) ) ;
#56 = APPROVAL ( #158, 'UNSPECIFIED' ) ;
#57 = PLANE ( 'NONE',  #94 ) ;
#58 = DIRECTION ( 'NONE',  ( -3.491481338843133355E-15, 1.224646799147353207E-16, -1.000000000000000000 ) ) ;
#59 = CARTESIAN_POINT ( 'NONE',  ( 1.047444401652940007E-13, 4.124339402320052999E-33, 30.00000000000000000 ) ) ;
#60 = DIRECTION ( 'NONE',  ( -3.491481338843133355E-15, 1.224646799147353207E-16, -1.000000000000000000 ) ) ;
#61 = ADVANCED_FACE ( 'NONE', ( #41 ), #77, .T. ) ;
#62 = CARTESIAN_POINT ( 'NONE',  ( 3.558002992641237188E-14, 0.7499999999999963363, 10.19052558883257475 ) ) ;
#63 = CONICAL_SURFACE ( 'NONE', #196, 0.7499999999999976685, 0.5235987755982881575 ) ;
#64 = CARTESIAN_POINT ( 'NONE',  ( 3.491481338843133355E-14, 0.6399999999999999023, 10.00000000000000000 ) ) ;
#65 = EDGE_LOOP ( 'NONE', ( #54 ) ) ;
#66 = DATE_AND_TIME ( #100, #51 ) ;
#67 = PERSON_AND_ORGANIZATION ( #204, #182 ) ;
#68 = ORIENTED_EDGE ( 'NONE', *, *, #154, .T. ) ;
#69 = DATE_AND_TIME ( #171, #131 ) ;
#70 = CLOSED_SHELL ( 'NONE', ( #61, #14, #151 ) ) ;
#71 = APPROVAL_ROLE ( '' ) ;
#72 = EDGE_LOOP ( 'NONE', ( #13 ) ) ;
#73 = PERSON_AND_ORGANIZATION ( #204, #182 ) ;
#74 = FACE_OUTER_BOUND ( 'NONE', #52, .T. ) ;
#75 = PRODUCT_DEFINITION ( 'UNKNOWN', '', #81, #98 ) ;
#76 = CC_DESIGN_PERSON_AND_ORGANIZATION_ASSIGNMENT ( #162, #173, ( #81 ) ) ;
#77 = CONICAL_SURFACE ( 'NONE', #50, 0.6399999999999989031, 1.047197551196592746 ) ;
#78 = CARTESIAN_POINT ( 'NONE',  ( 1.290116922145061018E-15, -4.525121018559646972E-17, 0.3695041722813641183 ) ) ;
#79 = CARTESIAN_POINT ( 'NONE',  ( 3.491481338843133355E-14, -1.224646799147353256E-15, 10.00000000000000000 ) ) ;
#80 = FACE_OUTER_BOUND ( 'NONE', #88, .T. ) ;
#81 = PRODUCT_DEFINITION_FORMATION_WITH_SPECIFIED_SOURCE ( 'ANY', '', #40, .NOT_KNOWN. ) ;
#82 = DIRECTION ( 'NONE',  ( 3.491481338843133355E-15, -1.224646799147353207E-16, 1.000000000000000000 ) ) ;
#83 = VERTEX_POINT ( 'NONE', #97 ) ;
#84 = VERTEX_POINT ( 'NONE', #201 ) ;
#85 = COORDINATED_UNIVERSAL_TIME_OFFSET ( 1, 0, .AHEAD. ) ;
#86 = EDGE_LOOP ( 'NONE', ( #161 ) ) ;
#87 = PERSON_AND_ORGANIZATION ( #204, #182 ) ;
#88 = EDGE_LOOP ( 'NONE', ( #68 ) ) ;
#89 = APPROVAL_DATE_TIME ( #69, #149 ) ;
#90 = SHAPE_DEFINITION_REPRESENTATION ( #15, #220 ) ;
#91 = DIRECTION ( 'NONE',  ( 3.491481338843133355E-15, -1.224646799147353207E-16, 1.000000000000000000 ) ) ;
#92 = CARTESIAN_POINT ( 'NONE',  ( 0.0000000000000000000, 0.0000000000000000000, 0.0000000000000000000 ) ) ;
#93 = DIRECTION ( 'NONE',  ( 0.0000000000000000000, 1.000000000000000000, 0.0000000000000000000 ) ) ;
#94 = AXIS2_PLACEMENT_3D ( 'NONE', #194, #82, #195 ) ;
#95 = VERTEX_POINT ( 'NONE', #62 ) ;
#96 = APPROVAL_PERSON_ORGANIZATION ( #8, #129, #71 ) ;
#97 = CARTESIAN_POINT ( 'NONE',  ( 1.290116922145061216E-15, 0.6399999999999989031, 0.3695041722813641738 ) ) ;
#98 = DESIGN_CONTEXT ( 'detailed design', #132, 'design' ) ;
#99 = ADVANCED_FACE ( 'NONE', ( #107, #110 ), #63, .T. ) ;
#100 = CALENDAR_DATE ( 2021, 8, 10 ) ;
#101 = EDGE_LOOP ( 'NONE', ( #121 ) ) ;
#102 = DATE_AND_TIME ( #205, #145 ) ;
#103 = MANIFOLD_SOLID_BREP ( 'Corps-Déplacer/Copier1[2]', #70 ) ;
#104 = CALENDAR_DATE ( 2021, 8, 10 ) ;
#105 = LOCAL_TIME ( 7, 54, 20.00000000000000000, #192 ) ;
#106 = PERSON_AND_ORGANIZATION ( #204, #182 ) ;
#107 = FACE_BOUND ( 'NONE', #86, .T. ) ;
#108 = DIRECTION ( 'NONE',  ( 4.275831445896958607E-31, 1.000000000000000000, 1.224646799147353207E-16 ) ) ;
#109 = AXIS2_PLACEMENT_3D ( 'NONE', #55, #124, #166 ) ;
#110 = FACE_OUTER_BOUND ( 'NONE', #72, .T. ) ;
#111 = DIRECTION ( 'NONE',  ( -3.491481338843133355E-15, 1.224646799147353207E-16, -1.000000000000000000 ) ) ;
#112 = DIRECTION ( 'NONE',  ( -3.009265538105061275E-31, -1.000000000000000000, -8.470329472543018182E-17 ) ) ;
#113 = CC_DESIGN_PERSON_AND_ORGANIZATION_ASSIGNMENT ( #67, #120, ( #81 ) ) ;
#114 = LOCAL_TIME ( 7, 54, 20.00000000000000000, #49 ) ;
#115 = CARTESIAN_POINT ( 'NONE',  ( 0.0000000000000000000, 0.0000000000000000000, 0.0000000000000000000 ) ) ;
#116 = EDGE_CURVE ( 'NONE', #45, #45, #127, .T. ) ;
#117 = ORIENTED_EDGE ( 'NONE', *, *, #133, .F. ) ;
#118 = CC_DESIGN_DATE_AND_TIME_ASSIGNMENT ( #5, #172, ( #75 ) ) ;
#119 =( GEOMETRIC_REPRESENTATION_CONTEXT ( 3 ) GLOBAL_UNCERTAINTY_ASSIGNED_CONTEXT ( ( #31 ) ) GLOBAL_UNIT_ASSIGNED_CONTEXT ( ( #147, #183, #221 ) ) REPRESENTATION_CONTEXT ( 'NONE', 'WORKASPACE' ) );
#120 = PERSON_AND_ORGANIZATION_ROLE ( 'creator' ) ;
#121 = ORIENTED_EDGE ( 'NONE', *, *, #116, .F. ) ;
#122 = EDGE_CURVE ( 'NONE', #95, #95, #222, .T. ) ;
#123 = CIRCLE ( 'NONE', #28, 0.6399999999999989031 ) ;
#124 = DIRECTION ( 'NONE',  ( 3.491481338843133355E-15, -1.224646799147353207E-16, 1.000000000000000000 ) ) ;
#125 = CARTESIAN_POINT ( 'NONE',  ( 3.558002992641237188E-14, -1.247979454399301074E-15, 10.19052558883257475 ) ) ;
#126 = DIRECTION ( 'NONE',  ( 0.0000000000000000000, 1.000000000000000000, 0.0000000000000000000 ) ) ;
#127 = CIRCLE ( 'NONE', #191, 0.5500000000000000444 ) ;
#128 = APPROVAL_PERSON_ORGANIZATION ( #170, #149, #19 ) ;
#129 = APPROVAL ( #3, 'UNSPECIFIED' ) ;
#130 = CC_DESIGN_DATE_AND_TIME_ASSIGNMENT ( #66, #21, ( #152 ) ) ;
#131 = LOCAL_TIME ( 7, 54, 20.00000000000000000, #210 ) ;
#132 = APPLICATION_CONTEXT ( 'configuration controlled 3d designs of mechanical parts and assemblies' ) ;
#133 = EDGE_CURVE ( 'NONE', #83, #83, #123, .T. ) ;
#134 = AXIS2_PLACEMENT_3D ( 'NONE', #59, #60, #213 ) ;
#135 = CC_DESIGN_APPROVAL ( #149, ( #152 ) ) ;
#136 = EDGE_LOOP ( 'NONE', ( #187 ) ) ;
#137 = CC_DESIGN_PERSON_AND_ORGANIZATION_ASSIGNMENT ( #106, #2, ( #75 ) ) ;
#138 = CALENDAR_DATE ( 2021, 8, 10 ) ;
#139 = ORIENTED_EDGE ( 'NONE', *, *, #116, .T. ) ;
#140 = APPROVAL_DATE_TIME ( #157, #56 ) ;
#141 = DIRECTION ( 'NONE',  ( 4.275831445896959482E-31, 1.000000000000000000, 1.224646799147353207E-16 ) ) ;
#142 = DIRECTION ( 'NONE',  ( 3.009265538105061275E-31, 1.000000000000000000, 8.470329472543018182E-17 ) ) ;
#143 = DIRECTION ( 'NONE',  ( -3.491481338843133355E-15, 1.224646799147353207E-16, -1.000000000000000000 ) ) ;
#144 = DIRECTION ( 'NONE',  ( 3.491481338843133355E-15, -1.224646799147353207E-16, 1.000000000000000000 ) ) ;
#145 = LOCAL_TIME ( 7, 54, 20.00000000000000000, #85 ) ;
#146 = CYLINDRICAL_SURFACE ( 'NONE', #6, 0.6399999999999999023 ) ;
#147 =( LENGTH_UNIT ( ) NAMED_UNIT ( * ) SI_UNIT ( .MILLI., .METRE. ) );
#148 = ADVANCED_FACE ( 'NONE', ( #10 ), #25, .F. ) ;
#149 = APPROVAL ( #188, 'UNSPECIFIED' ) ;
#150 = VERTEX_POINT ( 'NONE', #64 ) ;
#151 = ADVANCED_FACE ( 'NONE', ( #74 ), #57, .T. ) ;
#152 = SECURITY_CLASSIFICATION ( '', '', #189 ) ;
#153 = MECHANICAL_CONTEXT ( 'NONE', #198, 'mechanical' ) ;
#154 = EDGE_CURVE ( 'NONE', #150, #150, #1, .T. ) ;
#155 = CC_DESIGN_PERSON_AND_ORGANIZATION_ASSIGNMENT ( #73, #18, ( #152 ) ) ;
#156 = CIRCLE ( 'NONE', #17, 0.6400000000000011235 ) ;
#157 = DATE_AND_TIME ( #138, #105 ) ;
#158 = APPROVAL_STATUS ( 'not_yet_approved' ) ;
#159 = ORIENTED_EDGE ( 'NONE', *, *, #133, .T. ) ;
#160 = AXIS2_PLACEMENT_3D ( 'NONE', #79, #197, #93 ) ;
#161 = ORIENTED_EDGE ( 'NONE', *, *, #215, .F. ) ;
#162 = PERSON_AND_ORGANIZATION ( #204, #182 ) ;
#163 = FACE_OUTER_BOUND ( 'NONE', #203, .T. ) ;
#164 = FACE_OUTER_BOUND ( 'NONE', #47, .T. ) ;
#165 = AXIS2_PLACEMENT_3D ( 'NONE', #39, #58, #193 ) ;
#166 = DIRECTION ( 'NONE',  ( -4.275831445896958607E-31, -1.000000000000000000, -1.224646799147353207E-16 ) ) ;
#167 = DIRECTION ( 'NONE',  ( -3.491481338843133355E-15, 1.224646799147353207E-16, -1.000000000000000000 ) ) ;
#168 = VERTEX_POINT ( 'NONE', #219 ) ;
#169 = CC_DESIGN_APPROVAL ( #56, ( #81 ) ) ;
#170 = PERSON_AND_ORGANIZATION ( #204, #182 ) ;
#171 = CALENDAR_DATE ( 2021, 8, 10 ) ;
#172 = DATE_TIME_ROLE ( 'creation_date' ) ;
#173 = PERSON_AND_ORGANIZATION_ROLE ( 'design_supplier' ) ;
#174 = DIRECTION ( 'NONE',  ( 0.0000000000000000000, -1.000000000000000000, 0.0000000000000000000 ) ) ;
#175 = FACE_OUTER_BOUND ( 'NONE', #65, .T. ) ;
#176 = CONICAL_SURFACE ( 'NONE', #165, 0.5500000000000000444, 0.7853981633974516097 ) ;
#177 = CC_DESIGN_SECURITY_CLASSIFICATION ( #152, ( #81 ) ) ;
#178 = MANIFOLD_SOLID_BREP ( 'Corps-Déplacer/Copier1[1]', #202 ) ;
#179 = DIRECTION ( 'NONE',  ( 0.0000000000000000000, 1.000000000000000000, 0.0000000000000000000 ) ) ;
#180 = DIRECTION ( 'NONE',  ( -3.491481338843133355E-15, 1.224646799147353207E-16, -1.000000000000000000 ) ) ;
#181 = FACE_BOUND ( 'NONE', #208, .T. ) ;
#182 = ORGANIZATION ( 'UNSPECIFIED', 'UNSPECIFIED', '' ) ;
#183 =( NAMED_UNIT ( * ) PLANE_ANGLE_UNIT ( ) SI_UNIT ( $, .RADIAN. ) );
#184 = DIRECTION ( 'NONE',  ( 1.000000000000000000, 0.0000000000000000000, 0.0000000000000000000 ) ) ;
#185 = AXIS2_PLACEMENT_3D ( 'NONE', #214, #42, #126 ) ;
#186 = ADVANCED_FACE ( 'NONE', ( #175, #24 ), #37, .T. ) ;
#187 = ORIENTED_EDGE ( 'NONE', *, *, #35, .T. ) ;
#188 = APPROVAL_STATUS ( 'not_yet_approved' ) ;
#189 = SECURITY_CLASSIFICATION_LEVEL ( 'unclassified' ) ;
#190 = APPROVAL_ROLE ( '' ) ;
#191 = AXIS2_PLACEMENT_3D ( 'NONE', #22, #216, #38 ) ;
#192 = COORDINATED_UNIVERSAL_TIME_OFFSET ( 1, 0, .AHEAD. ) ;
#193 = DIRECTION ( 'NONE',  ( 0.0000000000000000000, 1.000000000000000000, 0.0000000000000000000 ) ) ;
#194 = CARTESIAN_POINT ( 'NONE',  ( 3.491481338843133355E-14, 4.799231304517935587E-33, 10.00000000000000000 ) ) ;
#195 = DIRECTION ( 'NONE',  ( -4.275831445896958607E-31, -1.000000000000000000, -1.224646799147353207E-16 ) ) ;
#196 = AXIS2_PLACEMENT_3D ( 'NONE', #9, #91, #174 ) ;
#197 = DIRECTION ( 'NONE',  ( -3.491481338843133355E-15, 1.224646799147353207E-16, -1.000000000000000000 ) ) ;
#198 = APPLICATION_CONTEXT ( 'configuration controlled 3d designs of mechanical parts and assemblies' ) ;
#199 = ADVANCED_FACE ( 'NONE', ( #218 ), #211, .F. ) ;
#200 = CARTESIAN_POINT ( 'NONE',  ( 1.290116922145061018E-15, -4.525121018559646972E-17, 0.3695041722813641183 ) ) ;
#201 = CARTESIAN_POINT ( 'NONE',  ( 3.491481338843133355E-14, 0.6399999999999999023, 10.00000000000000000 ) ) ;
#202 = CLOSED_SHELL ( 'NONE', ( #199, #99, #186, #53, #148 ) ) ;
#203 = EDGE_LOOP ( 'NONE', ( #33 ) ) ;
#204 = PERSON ( 'UNSPECIFIED', 'UNSPECIFIED', 'UNSPECIFIED', ('UNSPECIFIED'), ('UNSPECIFIED'), ('UNSPECIFIED') ) ;
#205 = CALENDAR_DATE ( 2021, 8, 10 ) ;
#206 = AXIS2_PLACEMENT_3D ( 'NONE', #92, #167, #141 ) ;
#207 = ORIENTED_EDGE ( 'NONE', *, *, #154, .F. ) ;
#208 = EDGE_LOOP ( 'NONE', ( #139 ) ) ;
#209 = CC_DESIGN_PERSON_AND_ORGANIZATION_ASSIGNMENT ( #29, #36, ( #40 ) ) ;
#210 = COORDINATED_UNIVERSAL_TIME_OFFSET ( 1, 0, .AHEAD. ) ;
#211 = PLANE ( 'NONE',  #109 ) ;
#212 = PRODUCT_RELATED_PRODUCT_CATEGORY ( 'detail', '', ( #40 ) ) ;
#213 = DIRECTION ( 'NONE',  ( 4.275831445896958607E-31, 1.000000000000000000, 1.224646799147353207E-16 ) ) ;
#214 = CARTESIAN_POINT ( 'NONE',  ( 1.040461438975253740E-13, -3.649447461459112464E-15, 29.80000000000000071 ) ) ;
#215 = EDGE_CURVE ( 'NONE', #84, #84, #156, .T. ) ;
#216 = DIRECTION ( 'NONE',  ( -3.491481338843133355E-15, 1.224646799147353207E-16, -1.000000000000000000 ) ) ;
#217 = AXIS2_PLACEMENT_3D ( 'NONE', #115, #223, #184 ) ;
#218 = FACE_OUTER_BOUND ( 'NONE', #20, .T. ) ;
#219 = CARTESIAN_POINT ( 'NONE',  ( 1.040461438975253740E-13, 0.7499999999999964473, 29.80000000000000071 ) ) ;
#220 = ADVANCED_BREP_SHAPE_REPRESENTATION ( '958032', ( #178, #103, #217 ), #119 ) ;
#221 =( NAMED_UNIT ( * ) SI_UNIT ( $, .STERADIAN. ) SOLID_ANGLE_UNIT ( ) );
#222 = CIRCLE ( 'NONE', #23, 0.7499999999999976685 ) ;
#223 = DIRECTION ( 'NONE',  ( 0.0000000000000000000, 0.0000000000000000000, 1.000000000000000000 ) ) ;
ENDSEC;
END-ISO-10303-21;
