ISO-10303-21;
HEADER;
FILE_DESCRIPTION (( 'STEP AP203' ),
    '1' );
FILE_NAME ('958030.step',
    '2021-10-08T08:13:19',
    ( '' ),
    ( '' ),
    'SwSTEP 2.0',
    'SolidWorks 2019',
    '' );
FILE_SCHEMA (( 'CONFIG_CONTROL_DESIGN' ));
ENDSEC;

DATA;
#1 = CLOSED_SHELL ( 'NONE', ( #5, #104, #33, #118, #20 ) ) ;
#2 = CIRCLE ( 'NONE', #179, 0.6199999999999987743 ) ;
#3 = DATE_AND_TIME ( #204, #113 ) ;
#4 = FACE_OUTER_BOUND ( 'NONE', #166, .T. ) ;
#5 = ADVANCED_FACE ( 'NONE', ( #119 ), #152, .F. ) ;
#6 = ORIENTED_EDGE ( 'NONE', *, *, #185, .F. ) ;
#7 = APPROVAL_STATUS ( 'not_yet_approved' ) ;
#8 = ADVANCED_FACE ( 'NONE', ( #155 ), #126, .T. ) ;
#9 = APPROVAL ( #96, 'UNSPECIFIED' ) ;
#10 = SECURITY_CLASSIFICATION_LEVEL ( 'unclassified' ) ;
#11 = APPROVAL_STATUS ( 'not_yet_approved' ) ;
#12 = EDGE_LOOP ( 'NONE', ( #92 ) ) ;
#13 = CALENDAR_DATE ( 2021, 8, 10 ) ;
#14 = VERTEX_POINT ( 'NONE', #46 ) ;
#15 = CARTESIAN_POINT ( 'NONE',  ( 3.491481338843133355E-14, 0.6199999999999981082, 10.00000000000000000 ) ) ;
#16 = CARTESIAN_POINT ( 'NONE',  ( 1.047444401652940007E-13, -3.673940397442059178E-15, 30.00000000000000000 ) ) ;
#17 = AXIS2_PLACEMENT_3D ( 'NONE', #36, #73, #98 ) ;
#18 = PLANE ( 'NONE',  #41 ) ;
#19 = DIRECTION ( 'NONE',  ( 4.275831445896959482E-31, 1.000000000000000000, 1.224646799147353207E-16 ) ) ;
#20 = ADVANCED_FACE ( 'NONE', ( #63 ), #187, .F. ) ;
#21 = DIRECTION ( 'NONE',  ( -3.491481338843133355E-15, 1.224646799147353207E-16, -1.000000000000000000 ) ) ;
#22 = CC_DESIGN_APPROVAL ( #9, ( #57 ) ) ;
#23 = DIRECTION ( 'NONE',  ( -3.491481338843133355E-15, 1.224646799147353207E-16, -1.000000000000000000 ) ) ;
#24 = CARTESIAN_POINT ( 'NONE',  ( 3.570097838786346574E-14, -1.252221755354200462E-15, 10.22516660498395247 ) ) ;
#25 = DIRECTION ( 'NONE',  ( 0.0000000000000000000, 1.000000000000000000, 0.0000000000000000000 ) ) ;
#26 = DIRECTION ( 'NONE',  ( 0.0000000000000000000, 1.000000000000000000, 0.0000000000000000000 ) ) ;
#27 = EDGE_LOOP ( 'NONE', ( #60 ) ) ;
#28 = ORIENTED_EDGE ( 'NONE', *, *, #68, .T. ) ;
#29 = ORGANIZATION ( 'UNSPECIFIED', 'UNSPECIFIED', '' ) ;
#30 = EDGE_LOOP ( 'NONE', ( #43 ) ) ;
#31 = FACE_OUTER_BOUND ( 'NONE', #97, .T. ) ;
#32 = CARTESIAN_POINT ( 'NONE',  ( 3.491481338843133355E-14, 4.649255326251735731E-33, 10.00000000000000000 ) ) ;
#33 = ADVANCED_FACE ( 'NONE', ( #31, #220 ), #94, .T. ) ;
#34 = CARTESIAN_POINT ( 'NONE',  ( 1.040461438975253740E-13, -3.649447461459112464E-15, 29.80000000000000071 ) ) ;
#35 = CIRCLE ( 'NONE', #161, 0.7499999999999976685 ) ;
#36 = CARTESIAN_POINT ( 'NONE',  ( 1.249800768328027430E-15, -4.383710986729656482E-17, 0.3579571668975713994 ) ) ;
#37 = DIRECTION ( 'NONE',  ( -4.275831445896958607E-31, -1.000000000000000000, -1.224646799147353207E-16 ) ) ;
#38 = CARTESIAN_POINT ( 'NONE',  ( 3.491481338843133355E-14, -1.224646799147353256E-15, 10.00000000000000000 ) ) ;
#39 = EDGE_LOOP ( 'NONE', ( #144 ) ) ;
#40 = COORDINATED_UNIVERSAL_TIME_OFFSET ( 1, 0, .AHEAD. ) ;
#41 = AXIS2_PLACEMENT_3D ( 'NONE', #32, #48, #114 ) ;
#42 = CALENDAR_DATE ( 2021, 8, 10 ) ;
#43 = ORIENTED_EDGE ( 'NONE', *, *, #135, .F. ) ;
#44 = PRODUCT ( '958030', '958030', '', ( #61 ) ) ;
#45 = CARTESIAN_POINT ( 'NONE',  ( 1.047444401652940007E-13, 4.124339402320052999E-33, 30.00000000000000000 ) ) ;
#46 = CARTESIAN_POINT ( 'NONE',  ( 1.249800768328027627E-15, 0.6199999999999987743, 0.3579571668975714549 ) ) ;
#47 = APPROVAL_ROLE ( '' ) ;
#48 = DIRECTION ( 'NONE',  ( 3.491481338843133355E-15, -1.224646799147353207E-16, 1.000000000000000000 ) ) ;
#49 = CC_DESIGN_PERSON_AND_ORGANIZATION_ASSIGNMENT ( #183, #90, ( #55 ) ) ;
#50 = CIRCLE ( 'NONE', #106, 0.5500000000000000444 ) ;
#51 = AXIS2_PLACEMENT_3D ( 'NONE', #45, #170, #110 ) ;
#52 = PERSON ( 'UNSPECIFIED', 'UNSPECIFIED', 'UNSPECIFIED', ('UNSPECIFIED'), ('UNSPECIFIED'), ('UNSPECIFIED') ) ;
#53 = DATE_TIME_ROLE ( 'classification_date' ) ;
#54 = EDGE_CURVE ( 'NONE', #56, #56, #50, .T. ) ;
#55 = PRODUCT_DEFINITION_FORMATION_WITH_SPECIFIED_SOURCE ( 'ANY', '', #44, .NOT_KNOWN. ) ;
#56 = VERTEX_POINT ( 'NONE', #149 ) ;
#57 = SECURITY_CLASSIFICATION ( '', '', #10 ) ;
#58 = PERSON_AND_ORGANIZATION ( #52, #29 ) ;
#59 = AXIS2_PLACEMENT_3D ( 'NONE', #24, #125, #87 ) ;
#60 = ORIENTED_EDGE ( 'NONE', *, *, #54, .T. ) ;
#61 = MECHANICAL_CONTEXT ( 'NONE', #80, 'mechanical' ) ;
#62 = COORDINATED_UNIVERSAL_TIME_OFFSET ( 1, 0, .AHEAD. ) ;
#63 = FACE_OUTER_BOUND ( 'NONE', #128, .T. ) ;
#64 = DIRECTION ( 'NONE',  ( 0.0000000000000000000, 0.0000000000000000000, 1.000000000000000000 ) ) ;
#65 = CALENDAR_DATE ( 2021, 8, 10 ) ;
#66 = DIRECTION ( 'NONE',  ( 0.0000000000000000000, 1.000000000000000000, 0.0000000000000000000 ) ) ;
#67 = ADVANCED_FACE ( 'NONE', ( #207 ), #18, .T. ) ;
#68 = EDGE_CURVE ( 'NONE', #78, #78, #69, .T. ) ;
#69 = CIRCLE ( 'NONE', #201, 0.7500000000000000000 ) ;
#70 = PERSON_AND_ORGANIZATION_ROLE ( 'creator' ) ;
#71 = DIRECTION ( 'NONE',  ( 0.0000000000000000000, 1.000000000000000000, 0.0000000000000000000 ) ) ;
#72 = FACE_BOUND ( 'NONE', #27, .T. ) ;
#73 = DIRECTION ( 'NONE',  ( 3.491481338843133355E-15, -1.224646799147353207E-16, 1.000000000000000000 ) ) ;
#74 = APPROVAL_DATE_TIME ( #171, #9 ) ;
#75 = VERTEX_POINT ( 'NONE', #15 ) ;
#76 = DATE_TIME_ROLE ( 'creation_date' ) ;
#77 = DIRECTION ( 'NONE',  ( -3.491481338843133355E-15, 1.224646799147353207E-16, -1.000000000000000000 ) ) ;
#78 = VERTEX_POINT ( 'NONE', #168 ) ;
#79 = DIRECTION ( 'NONE',  ( -3.491481338843133355E-15, 1.224646799147353207E-16, -1.000000000000000000 ) ) ;
#80 = APPLICATION_CONTEXT ( 'configuration controlled 3d designs of mechanical parts and assemblies' ) ;
#81 = EDGE_CURVE ( 'NONE', #14, #14, #2, .T. ) ;
#82 = CARTESIAN_POINT ( 'NONE',  ( 0.0000000000000000000, 0.0000000000000000000, 0.0000000000000000000 ) ) ;
#83 = APPROVAL_PERSON_ORGANIZATION ( #206, #9, #47 ) ;
#84 = AXIS2_PLACEMENT_3D ( 'NONE', #196, #23, #25 ) ;
#85 = APPROVAL ( #7, 'UNSPECIFIED' ) ;
#86 = CIRCLE ( 'NONE', #216, 0.6199999999999993294 ) ;
#87 = DIRECTION ( 'NONE',  ( 0.0000000000000000000, -1.000000000000000000, 0.0000000000000000000 ) ) ;
#88 = ORIENTED_EDGE ( 'NONE', *, *, #185, .T. ) ;
#89 = DESIGN_CONTEXT ( 'detailed design', #105, 'design' ) ;
#90 = PERSON_AND_ORGANIZATION_ROLE ( 'design_supplier' ) ;
#91 = APPROVAL_PERSON_ORGANIZATION ( #169, #108, #217 ) ;
#92 = ORIENTED_EDGE ( 'NONE', *, *, #135, .T. ) ;
#93 =( NAMED_UNIT ( * ) PLANE_ANGLE_UNIT ( ) SI_UNIT ( $, .RADIAN. ) );
#94 = CYLINDRICAL_SURFACE ( 'NONE', #139, 0.7499999999999987788 ) ;
#95 = CARTESIAN_POINT ( 'NONE',  ( 3.570097838786346574E-14, 0.7499999999999963363, 10.22516660498395247 ) ) ;
#96 = APPROVAL_STATUS ( 'not_yet_approved' ) ;
#97 = EDGE_LOOP ( 'NONE', ( #215 ) ) ;
#98 = DIRECTION ( 'NONE',  ( -3.106338619979418966E-31, -1.000000000000000000, -8.743565907141182524E-17 ) ) ;
#99 = CARTESIAN_POINT ( 'NONE',  ( 1.249800768328027430E-15, -4.383710986729656482E-17, 0.3579571668975713994 ) ) ;
#100 = PERSON_AND_ORGANIZATION ( #52, #29 ) ;
#101 = EDGE_CURVE ( 'NONE', #112, #112, #35, .T. ) ;
#102 = LOCAL_TIME ( 10, 13, 19.00000000000000000, #130 ) ;
#103 = CARTESIAN_POINT ( 'NONE',  ( 1.047444401652940007E-13, -3.673940397442059178E-15, 30.00000000000000000 ) ) ;
#104 = ADVANCED_FACE ( 'NONE', ( #137, #176 ), #178, .T. ) ;
#105 = APPLICATION_CONTEXT ( 'configuration controlled 3d designs of mechanical parts and assemblies' ) ;
#106 = AXIS2_PLACEMENT_3D ( 'NONE', #16, #79, #134 ) ;
#107 = CC_DESIGN_PERSON_AND_ORGANIZATION_ASSIGNMENT ( #100, #115, ( #57 ) ) ;
#108 = APPROVAL ( #11, 'UNSPECIFIED' ) ;
#109 = ORIENTED_EDGE ( 'NONE', *, *, #54, .F. ) ;
#110 = DIRECTION ( 'NONE',  ( 4.275831445896958607E-31, 1.000000000000000000, 1.224646799147353207E-16 ) ) ;
#111 = DIRECTION ( 'NONE',  ( 3.491481338843133355E-15, -1.224646799147353207E-16, 1.000000000000000000 ) ) ;
#112 = VERTEX_POINT ( 'NONE', #95 ) ;
#113 = LOCAL_TIME ( 10, 13, 19.00000000000000000, #218 ) ;
#114 = DIRECTION ( 'NONE',  ( -4.275831445896958607E-31, -1.000000000000000000, -1.224646799147353207E-16 ) ) ;
#115 = PERSON_AND_ORGANIZATION_ROLE ( 'classification_officer' ) ;
#116 = APPLICATION_PROTOCOL_DEFINITION ( 'international standard', 'config_control_design', 1994, #80 ) ;
#117 = EDGE_LOOP ( 'NONE', ( #6 ) ) ;
#118 = ADVANCED_FACE ( 'NONE', ( #4, #72 ), #162, .T. ) ;
#119 = FACE_OUTER_BOUND ( 'NONE', #184, .T. ) ;
#120 =( GEOMETRIC_REPRESENTATION_CONTEXT ( 3 ) GLOBAL_UNCERTAINTY_ASSIGNED_CONTEXT ( ( #209 ) ) GLOBAL_UNIT_ASSIGNED_CONTEXT ( ( #154, #93, #189 ) ) REPRESENTATION_CONTEXT ( 'NONE', 'WORKASPACE' ) );
#121 = FACE_OUTER_BOUND ( 'NONE', #12, .T. ) ;
#122 = CYLINDRICAL_SURFACE ( 'NONE', #138, 0.6199999999999989964 ) ;
#123 = PERSON_AND_ORGANIZATION ( #52, #29 ) ;
#124 = CC_DESIGN_APPROVAL ( #85, ( #55 ) ) ;
#125 = DIRECTION ( 'NONE',  ( 3.491481338843133355E-15, -1.224646799147353207E-16, 1.000000000000000000 ) ) ;
#126 = CONICAL_SURFACE ( 'NONE', #17, 0.6199999999999987743, 1.047197551196592746 ) ;
#127 = EDGE_LOOP ( 'NONE', ( #202 ) ) ;
#128 = EDGE_LOOP ( 'NONE', ( #109 ) ) ;
#129 = CC_DESIGN_DATE_AND_TIME_ASSIGNMENT ( #172, #76, ( #211 ) ) ;
#130 = COORDINATED_UNIVERSAL_TIME_OFFSET ( 1, 0, .AHEAD. ) ;
#131 = ADVANCED_BREP_SHAPE_REPRESENTATION ( '958030', ( #191, #193, #198 ), #120 ) ;
#132 = CARTESIAN_POINT ( 'NONE',  ( 3.491481338843133355E-14, 0.6199999999999981082, 10.00000000000000000 ) ) ;
#133 = CALENDAR_DATE ( 2021, 8, 10 ) ;
#134 = DIRECTION ( 'NONE',  ( 0.0000000000000000000, 1.000000000000000000, 0.0000000000000000000 ) ) ;
#135 = EDGE_CURVE ( 'NONE', #156, #156, #86, .T. ) ;
#136 = DIRECTION ( 'NONE',  ( 1.000000000000000000, 0.0000000000000000000, 0.0000000000000000000 ) ) ;
#137 = FACE_BOUND ( 'NONE', #117, .T. ) ;
#138 = AXIS2_PLACEMENT_3D ( 'NONE', #82, #194, #177 ) ;
#139 = AXIS2_PLACEMENT_3D ( 'NONE', #175, #192, #19 ) ;
#140 = APPROVAL_DATE_TIME ( #3, #108 ) ;
#141 = FACE_OUTER_BOUND ( 'NONE', #39, .T. ) ;
#142 = PERSON_AND_ORGANIZATION_ROLE ( 'creator' ) ;
#143 = EDGE_LOOP ( 'NONE', ( #28 ) ) ;
#144 = ORIENTED_EDGE ( 'NONE', *, *, #81, .F. ) ;
#145 = CC_DESIGN_PERSON_AND_ORGANIZATION_ASSIGNMENT ( #167, #200, ( #44 ) ) ;
#146 = CC_DESIGN_SECURITY_CLASSIFICATION ( #57, ( #55 ) ) ;
#147 = APPLICATION_PROTOCOL_DEFINITION ( 'international standard', 'config_control_design', 1994, #105 ) ;
#148 = ORIENTED_EDGE ( 'NONE', *, *, #68, .F. ) ;
#149 = CARTESIAN_POINT ( 'NONE',  ( 1.047444401652940007E-13, 0.5499999999999963807, 30.00000000000000000 ) ) ;
#150 = ADVANCED_FACE ( 'NONE', ( #141, #121 ), #122, .T. ) ;
#151 = PRODUCT_DEFINITION_SHAPE ( 'NONE', 'NONE',  #211 ) ;
#152 = PLANE ( 'NONE',  #210 ) ;
#153 = SHAPE_DEFINITION_REPRESENTATION ( #151, #131 ) ;
#154 =( LENGTH_UNIT ( ) NAMED_UNIT ( * ) SI_UNIT ( .MILLI., .METRE. ) );
#155 = FACE_OUTER_BOUND ( 'NONE', #127, .T. ) ;
#156 = VERTEX_POINT ( 'NONE', #132 ) ;
#157 = LOCAL_TIME ( 10, 13, 19.00000000000000000, #62 ) ;
#158 = DIRECTION ( 'NONE',  ( -3.491481338843133355E-15, 1.224646799147353207E-16, -1.000000000000000000 ) ) ;
#159 = DIRECTION ( 'NONE',  ( 0.0000000000000000000, 1.000000000000000000, 0.0000000000000000000 ) ) ;
#160 = DATE_AND_TIME ( #65, #213 ) ;
#161 = AXIS2_PLACEMENT_3D ( 'NONE', #173, #77, #66 ) ;
#162 = CONICAL_SURFACE ( 'NONE', #190, 0.5500000000000000444, 0.7853981633974512766 ) ;
#163 = PERSON_AND_ORGANIZATION ( #52, #29 ) ;
#164 = DATE_AND_TIME ( #42, #165 ) ;
#165 = LOCAL_TIME ( 10, 13, 19.00000000000000000, #40 ) ;
#166 = EDGE_LOOP ( 'NONE', ( #148 ) ) ;
#167 = PERSON_AND_ORGANIZATION ( #52, #29 ) ;
#168 = CARTESIAN_POINT ( 'NONE',  ( 1.040461438975253740E-13, 0.7499999999999963363, 29.80000000000000071 ) ) ;
#169 = PERSON_AND_ORGANIZATION ( #52, #29 ) ;
#170 = DIRECTION ( 'NONE',  ( -3.491481338843133355E-15, 1.224646799147353207E-16, -1.000000000000000000 ) ) ;
#171 = DATE_AND_TIME ( #13, #102 ) ;
#172 = DATE_AND_TIME ( #133, #157 ) ;
#173 = CARTESIAN_POINT ( 'NONE',  ( 3.570097838786346574E-14, -1.252221755354200462E-15, 10.22516660498395247 ) ) ;
#174 = CC_DESIGN_DATE_AND_TIME_ASSIGNMENT ( #160, #53, ( #57 ) ) ;
#175 = CARTESIAN_POINT ( 'NONE',  ( 0.0000000000000000000, 0.0000000000000000000, 0.0000000000000000000 ) ) ;
#176 = FACE_OUTER_BOUND ( 'NONE', #199, .T. ) ;
#177 = DIRECTION ( 'NONE',  ( 4.275831445896958607E-31, 1.000000000000000000, 1.224646799147353207E-16 ) ) ;
#178 = CONICAL_SURFACE ( 'NONE', #59, 0.7499999999999976685, 0.5235987755982962621 ) ;
#179 = AXIS2_PLACEMENT_3D ( 'NONE', #99, #158, #223 ) ;
#180 = CC_DESIGN_PERSON_AND_ORGANIZATION_ASSIGNMENT ( #123, #70, ( #211 ) ) ;
#181 = DIRECTION ( 'NONE',  ( -3.491481338843133355E-15, 1.224646799147353207E-16, -1.000000000000000000 ) ) ;
#182 = CLOSED_SHELL ( 'NONE', ( #8, #150, #67 ) ) ;
#183 = PERSON_AND_ORGANIZATION ( #52, #29 ) ;
#184 = EDGE_LOOP ( 'NONE', ( #88 ) ) ;
#185 = EDGE_CURVE ( 'NONE', #75, #75, #208, .T. ) ;
#186 = ORIENTED_EDGE ( 'NONE', *, *, #101, .T. ) ;
#187 = PLANE ( 'NONE',  #51 ) ;
#188 = APPROVAL_PERSON_ORGANIZATION ( #58, #85, #212 ) ;
#189 =( NAMED_UNIT ( * ) SI_UNIT ( $, .STERADIAN. ) SOLID_ANGLE_UNIT ( ) );
#190 = AXIS2_PLACEMENT_3D ( 'NONE', #103, #197, #71 ) ;
#191 = MANIFOLD_SOLID_BREP ( 'Corps-Déplacer/Copier1[1]', #1 ) ;
#192 = DIRECTION ( 'NONE',  ( -3.491481338843133355E-15, 1.224646799147353207E-16, -1.000000000000000000 ) ) ;
#193 = MANIFOLD_SOLID_BREP ( 'Corps-Déplacer/Copier1[2]', #182 ) ;
#194 = DIRECTION ( 'NONE',  ( -3.491481338843133355E-15, 1.224646799147353207E-16, -1.000000000000000000 ) ) ;
#195 = CC_DESIGN_PERSON_AND_ORGANIZATION_ASSIGNMENT ( #163, #142, ( #55 ) ) ;
#196 = CARTESIAN_POINT ( 'NONE',  ( 3.491481338843133355E-14, -1.224646799147353256E-15, 10.00000000000000000 ) ) ;
#197 = DIRECTION ( 'NONE',  ( -3.491481338843133355E-15, 1.224646799147353207E-16, -1.000000000000000000 ) ) ;
#198 = AXIS2_PLACEMENT_3D ( 'NONE', #219, #64, #136 ) ;
#199 = EDGE_LOOP ( 'NONE', ( #186 ) ) ;
#200 = PERSON_AND_ORGANIZATION_ROLE ( 'design_owner' ) ;
#201 = AXIS2_PLACEMENT_3D ( 'NONE', #34, #21, #159 ) ;
#202 = ORIENTED_EDGE ( 'NONE', *, *, #81, .T. ) ;
#203 = PRODUCT_RELATED_PRODUCT_CATEGORY ( 'detail', '', ( #44 ) ) ;
#204 = CALENDAR_DATE ( 2021, 8, 10 ) ;
#205 = CARTESIAN_POINT ( 'NONE',  ( 3.491481338843133355E-14, 4.649255326251735731E-33, 10.00000000000000000 ) ) ;
#206 = PERSON_AND_ORGANIZATION ( #52, #29 ) ;
#207 = FACE_OUTER_BOUND ( 'NONE', #30, .T. ) ;
#208 = CIRCLE ( 'NONE', #84, 0.6199999999999993294 ) ;
#209 = UNCERTAINTY_MEASURE_WITH_UNIT (LENGTH_MEASURE( 1.000000000000000082E-05 ), #154, 'distance_accuracy_value', 'NONE');
#210 = AXIS2_PLACEMENT_3D ( 'NONE', #205, #111, #37 ) ;
#211 = PRODUCT_DEFINITION ( 'UNKNOWN', '', #55, #89 ) ;
#212 = APPROVAL_ROLE ( '' ) ;
#213 = LOCAL_TIME ( 10, 13, 19.00000000000000000, #221 ) ;
#214 = APPROVAL_DATE_TIME ( #164, #85 ) ;
#215 = ORIENTED_EDGE ( 'NONE', *, *, #101, .F. ) ;
#216 = AXIS2_PLACEMENT_3D ( 'NONE', #38, #181, #26 ) ;
#217 = APPROVAL_ROLE ( '' ) ;
#218 = COORDINATED_UNIVERSAL_TIME_OFFSET ( 1, 0, .AHEAD. ) ;
#219 = CARTESIAN_POINT ( 'NONE',  ( 0.0000000000000000000, 0.0000000000000000000, 0.0000000000000000000 ) ) ;
#220 = FACE_OUTER_BOUND ( 'NONE', #143, .T. ) ;
#221 = COORDINATED_UNIVERSAL_TIME_OFFSET ( 1, 0, .AHEAD. ) ;
#222 = CC_DESIGN_APPROVAL ( #108, ( #211 ) ) ;
#223 = DIRECTION ( 'NONE',  ( 3.106338619979418966E-31, 1.000000000000000000, 8.743565907141182524E-17 ) ) ;
ENDSEC;
END-ISO-10303-21;
