ISO-10303-21;
HEADER;
FILE_DESCRIPTION (( 'STEP AP203' ),
    '1' );
FILE_NAME ('958029.step',
    '2021-10-08T05:54:20',
    ( '' ),
    ( '' ),
    'SwSTEP 2.0',
    'SolidWorks 2019',
    '' );
FILE_SCHEMA (( 'CONFIG_CONTROL_DESIGN' ));
ENDSEC;

DATA;
#1 = DIRECTION ( 'NONE',  ( -4.275831445896958607E-31, -1.000000000000000000, -1.224646799147353207E-16 ) ) ;
#2 = DESIGN_CONTEXT ( 'detailed design', #61, 'design' ) ;
#3 = FACE_OUTER_BOUND ( 'NONE', #45, .T. ) ;
#4 = APPROVAL_ROLE ( '' ) ;
#5 = COORDINATED_UNIVERSAL_TIME_OFFSET ( 1, 0, .AHEAD. ) ;
#6 = CARTESIAN_POINT ( 'NONE',  ( 0.0000000000000000000, 0.0000000000000000000, 0.0000000000000000000 ) ) ;
#7 = CARTESIAN_POINT ( 'NONE',  ( 1.047444401652940007E-13, 0.5499999999999963807, 30.00000000000000000 ) ) ;
#8 = PERSON ( 'UNSPECIFIED', 'UNSPECIFIED', 'UNSPECIFIED', ('UNSPECIFIED'), ('UNSPECIFIED'), ('UNSPECIFIED') ) ;
#9 = APPROVAL_DATE_TIME ( #135, #151 ) ;
#10 = DIRECTION ( 'NONE',  ( -3.491481338843133355E-15, 1.224646799147353207E-16, -1.000000000000000000 ) ) ;
#11 = APPROVAL_ROLE ( '' ) ;
#12 = ORIENTED_EDGE ( 'NONE', *, *, #156, .T. ) ;
#13 = ORIENTED_EDGE ( 'NONE', *, *, #121, .F. ) ;
#14 = FACE_OUTER_BOUND ( 'NONE', #62, .T. ) ;
#15 = AXIS2_PLACEMENT_3D ( 'NONE', #210, #127, #1 ) ;
#16 = DIRECTION ( 'NONE',  ( 3.491481338843133355E-15, -1.224646799147353207E-16, 1.000000000000000000 ) ) ;
#17 = CC_DESIGN_DATE_AND_TIME_ASSIGNMENT ( #60, #132, ( #33 ) ) ;
#18 = DIRECTION ( 'NONE',  ( -3.491481338843133355E-15, 1.224646799147353207E-16, -1.000000000000000000 ) ) ;
#19 = CARTESIAN_POINT ( 'NONE',  ( 1.249800768328027430E-15, -4.383710986729656482E-17, 0.3579571668975713994 ) ) ;
#20 = CARTESIAN_POINT ( 'NONE',  ( 3.491481338843133355E-14, 4.649255326251735731E-33, 10.00000000000000000 ) ) ;
#21 = LOCAL_TIME ( 7, 54, 20.00000000000000000, #183 ) ;
#22 = PERSON_AND_ORGANIZATION_ROLE ( 'creator' ) ;
#23 = PERSON_AND_ORGANIZATION ( #8, #29 ) ;
#24 = CONICAL_SURFACE ( 'NONE', #150, 0.5500000000000000444, 0.7853981633974516097 ) ;
#25 = PERSON_AND_ORGANIZATION ( #8, #29 ) ;
#26 = DIRECTION ( 'NONE',  ( 0.0000000000000000000, 1.000000000000000000, 0.0000000000000000000 ) ) ;
#27 = CC_DESIGN_SECURITY_CLASSIFICATION ( #33, ( #200 ) ) ;
#28 = EDGE_LOOP ( 'NONE', ( #86 ) ) ;
#29 = ORGANIZATION ( 'UNSPECIFIED', 'UNSPECIFIED', '' ) ;
#30 = DIRECTION ( 'NONE',  ( -3.491481338843133355E-15, 1.224646799147353207E-16, -1.000000000000000000 ) ) ;
#31 = FACE_OUTER_BOUND ( 'NONE', #221, .T. ) ;
#32 = DIRECTION ( 'NONE',  ( 0.0000000000000000000, 1.000000000000000000, 0.0000000000000000000 ) ) ;
#33 = SECURITY_CLASSIFICATION ( '', '', #176 ) ;
#34 = DIRECTION ( 'NONE',  ( -3.106338619979418966E-31, -1.000000000000000000, -8.743565907141182524E-17 ) ) ;
#35 = CARTESIAN_POINT ( 'NONE',  ( 0.0000000000000000000, 0.0000000000000000000, 0.0000000000000000000 ) ) ;
#36 = DIRECTION ( 'NONE',  ( 0.0000000000000000000, 0.0000000000000000000, 1.000000000000000000 ) ) ;
#37 = CIRCLE ( 'NONE', #208, 0.7499999999999976685 ) ;
#38 = ADVANCED_BREP_SHAPE_REPRESENTATION ( '958029', ( #120, #40, #137 ), #187 ) ;
#39 = COORDINATED_UNIVERSAL_TIME_OFFSET ( 1, 0, .AHEAD. ) ;
#40 = MANIFOLD_SOLID_BREP ( 'Corps-Déplacer/Copier1[2]', #171 ) ;
#41 = APPROVAL_ROLE ( '' ) ;
#42 = AXIS2_PLACEMENT_3D ( 'NONE', #125, #54, #32 ) ;
#43 = CC_DESIGN_APPROVAL ( #151, ( #33 ) ) ;
#44 = DATE_AND_TIME ( #164, #218 ) ;
#45 = EDGE_LOOP ( 'NONE', ( #138 ) ) ;
#46 = ORIENTED_EDGE ( 'NONE', *, *, #107, .T. ) ;
#47 = EDGE_LOOP ( 'NONE', ( #65 ) ) ;
#48 = CARTESIAN_POINT ( 'NONE',  ( 1.047444401652940007E-13, 4.124339402320052999E-33, 30.00000000000000000 ) ) ;
#49 = CARTESIAN_POINT ( 'NONE',  ( 1.047444401652940007E-13, -3.673940397442059178E-15, 30.00000000000000000 ) ) ;
#50 = ADVANCED_FACE ( 'NONE', ( #87, #152 ), #24, .T. ) ;
#51 = CARTESIAN_POINT ( 'NONE',  ( 3.491481338843133355E-14, -1.224646799147353256E-15, 10.00000000000000000 ) ) ;
#52 = CIRCLE ( 'NONE', #148, 0.6199999999999993294 ) ;
#53 = DIRECTION ( 'NONE',  ( -3.491481338843133355E-15, 1.224646799147353207E-16, -1.000000000000000000 ) ) ;
#54 = DIRECTION ( 'NONE',  ( -3.491481338843133355E-15, 1.224646799147353207E-16, -1.000000000000000000 ) ) ;
#55 = ADVANCED_FACE ( 'NONE', ( #100 ), #206, .F. ) ;
#56 = CARTESIAN_POINT ( 'NONE',  ( 1.040461438975253740E-13, 0.7499999999999964473, 29.80000000000000071 ) ) ;
#57 = APPROVAL_STATUS ( 'not_yet_approved' ) ;
#58 = CC_DESIGN_APPROVAL ( #114, ( #117 ) ) ;
#59 = PERSON_AND_ORGANIZATION_ROLE ( 'design_owner' ) ;
#60 = DATE_AND_TIME ( #216, #214 ) ;
#61 = APPLICATION_CONTEXT ( 'configuration controlled 3d designs of mechanical parts and assemblies' ) ;
#62 = EDGE_LOOP ( 'NONE', ( #102 ) ) ;
#63 = CC_DESIGN_APPROVAL ( #189, ( #200 ) ) ;
#64 = CC_DESIGN_PERSON_AND_ORGANIZATION_ASSIGNMENT ( #215, #131, ( #200 ) ) ;
#65 = ORIENTED_EDGE ( 'NONE', *, *, #110, .F. ) ;
#66 = EDGE_CURVE ( 'NONE', #94, #94, #154, .T. ) ;
#67 = VERTEX_POINT ( 'NONE', #123 ) ;
#68 = AXIS2_PLACEMENT_3D ( 'NONE', #72, #30, #142 ) ;
#69 = DIRECTION ( 'NONE',  ( 3.491481338843133355E-15, -1.224646799147353207E-16, 1.000000000000000000 ) ) ;
#70 = DIRECTION ( 'NONE',  ( 0.0000000000000000000, 1.000000000000000000, 0.0000000000000000000 ) ) ;
#71 = CARTESIAN_POINT ( 'NONE',  ( 3.570097838786346574E-14, -1.252221755354200462E-15, 10.22516660498395247 ) ) ;
#72 = CARTESIAN_POINT ( 'NONE',  ( 0.0000000000000000000, 0.0000000000000000000, 0.0000000000000000000 ) ) ;
#73 = PRODUCT_DEFINITION_SHAPE ( 'NONE', 'NONE',  #117 ) ;
#74 = CALENDAR_DATE ( 2021, 8, 10 ) ;
#75 = COORDINATED_UNIVERSAL_TIME_OFFSET ( 1, 0, .AHEAD. ) ;
#76 = APPLICATION_CONTEXT ( 'configuration controlled 3d designs of mechanical parts and assemblies' ) ;
#77 = CC_DESIGN_DATE_AND_TIME_ASSIGNMENT ( #112, #99, ( #117 ) ) ;
#78 = VERTEX_POINT ( 'NONE', #56 ) ;
#79 = AXIS2_PLACEMENT_3D ( 'NONE', #35, #158, #111 ) ;
#80 = ADVANCED_FACE ( 'NONE', ( #168 ), #141, .T. ) ;
#81 = APPROVAL_DATE_TIME ( #44, #114 ) ;
#82 = APPROVAL_STATUS ( 'not_yet_approved' ) ;
#83 = CONICAL_SURFACE ( 'NONE', #122, 0.7499999999999976685, 0.5235987755982962621 ) ;
#84 = EDGE_LOOP ( 'NONE', ( #12 ) ) ;
#85 = SHAPE_DEFINITION_REPRESENTATION ( #73, #38 ) ;
#86 = ORIENTED_EDGE ( 'NONE', *, *, #156, .F. ) ;
#87 = FACE_OUTER_BOUND ( 'NONE', #184, .T. ) ;
#88 = DIRECTION ( 'NONE',  ( 0.0000000000000000000, 1.000000000000000000, 0.0000000000000000000 ) ) ;
#89 = LOCAL_TIME ( 7, 54, 20.00000000000000000, #5 ) ;
#90 = DIRECTION ( 'NONE',  ( 0.0000000000000000000, -1.000000000000000000, 0.0000000000000000000 ) ) ;
#91 = CYLINDRICAL_SURFACE ( 'NONE', #79, 0.7499999999999988898 ) ;
#92 = CC_DESIGN_PERSON_AND_ORGANIZATION_ASSIGNMENT ( #113, #95, ( #200 ) ) ;
#93 = APPROVAL_PERSON_ORGANIZATION ( #98, #114, #41 ) ;
#94 = VERTEX_POINT ( 'NONE', #161 ) ;
#95 = PERSON_AND_ORGANIZATION_ROLE ( 'creator' ) ;
#96 = ADVANCED_FACE ( 'NONE', ( #159, #31 ), #83, .T. ) ;
#97 = PERSON_AND_ORGANIZATION_ROLE ( 'classification_officer' ) ;
#98 = PERSON_AND_ORGANIZATION ( #8, #29 ) ;
#99 = DATE_TIME_ROLE ( 'creation_date' ) ;
#100 = FACE_OUTER_BOUND ( 'NONE', #28, .T. ) ;
#101 = AXIS2_PLACEMENT_3D ( 'NONE', #20, #16, #190 ) ;
#102 = ORIENTED_EDGE ( 'NONE', *, *, #121, .T. ) ;
#103 = PRODUCT_RELATED_PRODUCT_CATEGORY ( 'detail', '', ( #109 ) ) ;
#104 = DIRECTION ( 'NONE',  ( 0.0000000000000000000, 1.000000000000000000, 0.0000000000000000000 ) ) ;
#105 = CARTESIAN_POINT ( 'NONE',  ( 1.249800768328027430E-15, -4.383710986729656482E-17, 0.3579571668975713994 ) ) ;
#106 = FACE_OUTER_BOUND ( 'NONE', #47, .T. ) ;
#107 = EDGE_CURVE ( 'NONE', #67, #67, #52, .T. ) ;
#108 = DIRECTION ( 'NONE',  ( 3.491481338843133355E-15, -1.224646799147353207E-16, 1.000000000000000000 ) ) ;
#109 = PRODUCT ( '958029', '958029', '', ( #198 ) ) ;
#110 = EDGE_CURVE ( 'NONE', #140, #140, #37, .T. ) ;
#111 = DIRECTION ( 'NONE',  ( 4.275831445896959482E-31, 1.000000000000000000, 1.224646799147353207E-16 ) ) ;
#112 = DATE_AND_TIME ( #178, #209 ) ;
#113 = PERSON_AND_ORGANIZATION ( #8, #29 ) ;
#114 = APPROVAL ( #147, 'UNSPECIFIED' ) ;
#115 = PERSON_AND_ORGANIZATION ( #8, #29 ) ;
#116 = AXIS2_PLACEMENT_3D ( 'NONE', #105, #69, #34 ) ;
#117 = PRODUCT_DEFINITION ( 'UNKNOWN', '', #200, #2 ) ;
#118 = PERSON_AND_ORGANIZATION ( #8, #29 ) ;
#119 = CC_DESIGN_PERSON_AND_ORGANIZATION_ASSIGNMENT ( #23, #97, ( #33 ) ) ;
#120 = MANIFOLD_SOLID_BREP ( 'Corps-Déplacer/Copier1[1]', #126 ) ;
#121 = EDGE_CURVE ( 'NONE', #188, #188, #165, .T. ) ;
#122 = AXIS2_PLACEMENT_3D ( 'NONE', #71, #108, #90 ) ;
#123 = CARTESIAN_POINT ( 'NONE',  ( 3.491481338843133355E-14, 0.6199999999999981082, 10.00000000000000000 ) ) ;
#124 = DIRECTION ( 'NONE',  ( -3.491481338843133355E-15, 1.224646799147353207E-16, -1.000000000000000000 ) ) ;
#125 = CARTESIAN_POINT ( 'NONE',  ( 1.040461438975253740E-13, -3.649447461459112464E-15, 29.80000000000000071 ) ) ;
#126 = CLOSED_SHELL ( 'NONE', ( #170, #96, #211, #50, #55 ) ) ;
#127 = DIRECTION ( 'NONE',  ( 3.491481338843133355E-15, -1.224646799147353207E-16, 1.000000000000000000 ) ) ;
#128 = FACE_OUTER_BOUND ( 'NONE', #202, .T. ) ;
#129 = DIRECTION ( 'NONE',  ( 1.000000000000000000, 0.0000000000000000000, 0.0000000000000000000 ) ) ;
#130 = CIRCLE ( 'NONE', #42, 0.7500000000000001110 ) ;
#131 = PERSON_AND_ORGANIZATION_ROLE ( 'design_supplier' ) ;
#132 = DATE_TIME_ROLE ( 'classification_date' ) ;
#133 = CIRCLE ( 'NONE', #204, 0.5500000000000000444 ) ;
#134 = EDGE_LOOP ( 'NONE', ( #167 ) ) ;
#135 = DATE_AND_TIME ( #181, #21 ) ;
#136 = ADVANCED_FACE ( 'NONE', ( #14 ), #192, .T. ) ;
#137 = AXIS2_PLACEMENT_3D ( 'NONE', #6, #36, #129 ) ;
#138 = ORIENTED_EDGE ( 'NONE', *, *, #66, .T. ) ;
#139 = ORIENTED_EDGE ( 'NONE', *, *, #186, .F. ) ;
#140 = VERTEX_POINT ( 'NONE', #203 ) ;
#141 = PLANE ( 'NONE',  #15 ) ;
#142 = DIRECTION ( 'NONE',  ( 4.275831445896958607E-31, 1.000000000000000000, 1.224646799147353207E-16 ) ) ;
#143 = DIRECTION ( 'NONE',  ( -3.491481338843133355E-15, 1.224646799147353207E-16, -1.000000000000000000 ) ) ;
#144 = PLANE ( 'NONE',  #101 ) ;
#145 = APPLICATION_PROTOCOL_DEFINITION ( 'international standard', 'config_control_design', 1994, #76 ) ;
#146 = COORDINATED_UNIVERSAL_TIME_OFFSET ( 1, 0, .AHEAD. ) ;
#147 = APPROVAL_STATUS ( 'not_yet_approved' ) ;
#148 = AXIS2_PLACEMENT_3D ( 'NONE', #174, #124, #88 ) ;
#149 = ORIENTED_EDGE ( 'NONE', *, *, #66, .F. ) ;
#150 = AXIS2_PLACEMENT_3D ( 'NONE', #199, #10, #26 ) ;
#151 = APPROVAL ( #82, 'UNSPECIFIED' ) ;
#152 = FACE_BOUND ( 'NONE', #84, .T. ) ;
#153 = DIRECTION ( 'NONE',  ( 3.106338619979418966E-31, 1.000000000000000000, 8.743565907141182524E-17 ) ) ;
#154 = CIRCLE ( 'NONE', #196, 0.6199999999999993294 ) ;
#155 = AXIS2_PLACEMENT_3D ( 'NONE', #48, #172, #173 ) ;
#156 = EDGE_CURVE ( 'NONE', #194, #194, #133, .T. ) ;
#157 = ADVANCED_FACE ( 'NONE', ( #207, #3 ), #191, .T. ) ;
#158 = DIRECTION ( 'NONE',  ( -3.491481338843133355E-15, 1.224646799147353207E-16, -1.000000000000000000 ) ) ;
#159 = FACE_BOUND ( 'NONE', #134, .T. ) ;
#160 = UNCERTAINTY_MEASURE_WITH_UNIT (LENGTH_MEASURE( 1.000000000000000082E-05 ), #217, 'distance_accuracy_value', 'NONE');
#161 = CARTESIAN_POINT ( 'NONE',  ( 3.491481338843133355E-14, 0.6199999999999981082, 10.00000000000000000 ) ) ;
#162 =( NAMED_UNIT ( * ) SI_UNIT ( $, .STERADIAN. ) SOLID_ANGLE_UNIT ( ) );
#163 = CC_DESIGN_PERSON_AND_ORGANIZATION_ASSIGNMENT ( #115, #59, ( #109 ) ) ;
#164 = CALENDAR_DATE ( 2021, 8, 10 ) ;
#165 = CIRCLE ( 'NONE', #180, 0.6199999999999987743 ) ;
#166 = ORIENTED_EDGE ( 'NONE', *, *, #186, .T. ) ;
#167 = ORIENTED_EDGE ( 'NONE', *, *, #107, .F. ) ;
#168 = FACE_OUTER_BOUND ( 'NONE', #219, .T. ) ;
#169 = FACE_OUTER_BOUND ( 'NONE', #201, .T. ) ;
#170 = ADVANCED_FACE ( 'NONE', ( #169 ), #144, .F. ) ;
#171 = CLOSED_SHELL ( 'NONE', ( #136, #157, #80 ) ) ;
#172 = DIRECTION ( 'NONE',  ( -3.491481338843133355E-15, 1.224646799147353207E-16, -1.000000000000000000 ) ) ;
#173 = DIRECTION ( 'NONE',  ( 4.275831445896958607E-31, 1.000000000000000000, 1.224646799147353207E-16 ) ) ;
#174 = CARTESIAN_POINT ( 'NONE',  ( 3.491481338843133355E-14, -1.224646799147353256E-15, 10.00000000000000000 ) ) ;
#175 = APPROVAL_DATE_TIME ( #212, #189 ) ;
#176 = SECURITY_CLASSIFICATION_LEVEL ( 'unclassified' ) ;
#177 = APPLICATION_PROTOCOL_DEFINITION ( 'international standard', 'config_control_design', 1994, #61 ) ;
#178 = CALENDAR_DATE ( 2021, 8, 10 ) ;
#179 = ORIENTED_EDGE ( 'NONE', *, *, #110, .T. ) ;
#180 = AXIS2_PLACEMENT_3D ( 'NONE', #19, #143, #153 ) ;
#181 = CALENDAR_DATE ( 2021, 8, 10 ) ;
#182 = APPROVAL_PERSON_ORGANIZATION ( #25, #189, #4 ) ;
#183 = COORDINATED_UNIVERSAL_TIME_OFFSET ( 1, 0, .AHEAD. ) ;
#184 = EDGE_LOOP ( 'NONE', ( #139 ) ) ;
#185 = PERSON_AND_ORGANIZATION ( #8, #29 ) ;
#186 = EDGE_CURVE ( 'NONE', #78, #78, #130, .T. ) ;
#187 =( GEOMETRIC_REPRESENTATION_CONTEXT ( 3 ) GLOBAL_UNCERTAINTY_ASSIGNED_CONTEXT ( ( #160 ) ) GLOBAL_UNIT_ASSIGNED_CONTEXT ( ( #217, #195, #162 ) ) REPRESENTATION_CONTEXT ( 'NONE', 'WORKASPACE' ) );
#188 = VERTEX_POINT ( 'NONE', #213 ) ;
#189 = APPROVAL ( #57, 'UNSPECIFIED' ) ;
#190 = DIRECTION ( 'NONE',  ( -4.275831445896958607E-31, -1.000000000000000000, -1.224646799147353207E-16 ) ) ;
#191 = CYLINDRICAL_SURFACE ( 'NONE', #68, 0.6199999999999989964 ) ;
#192 = CONICAL_SURFACE ( 'NONE', #116, 0.6199999999999987743, 1.047197551196592746 ) ;
#193 = CC_DESIGN_PERSON_AND_ORGANIZATION_ASSIGNMENT ( #118, #22, ( #117 ) ) ;
#194 = VERTEX_POINT ( 'NONE', #7 ) ;
#195 =( NAMED_UNIT ( * ) PLANE_ANGLE_UNIT ( ) SI_UNIT ( $, .RADIAN. ) );
#196 = AXIS2_PLACEMENT_3D ( 'NONE', #51, #223, #104 ) ;
#197 = APPROVAL_PERSON_ORGANIZATION ( #185, #151, #11 ) ;
#198 = MECHANICAL_CONTEXT ( 'NONE', #76, 'mechanical' ) ;
#199 = CARTESIAN_POINT ( 'NONE',  ( 1.047444401652940007E-13, -3.673940397442059178E-15, 30.00000000000000000 ) ) ;
#200 = PRODUCT_DEFINITION_FORMATION_WITH_SPECIFIED_SOURCE ( 'ANY', '', #109, .NOT_KNOWN. ) ;
#201 = EDGE_LOOP ( 'NONE', ( #46 ) ) ;
#202 = EDGE_LOOP ( 'NONE', ( #166 ) ) ;
#203 = CARTESIAN_POINT ( 'NONE',  ( 3.570097838786346574E-14, 0.7499999999999963363, 10.22516660498395247 ) ) ;
#204 = AXIS2_PLACEMENT_3D ( 'NONE', #49, #53, #70 ) ;
#205 = DIRECTION ( 'NONE',  ( 0.0000000000000000000, 1.000000000000000000, 0.0000000000000000000 ) ) ;
#206 = PLANE ( 'NONE',  #155 ) ;
#207 = FACE_OUTER_BOUND ( 'NONE', #220, .T. ) ;
#208 = AXIS2_PLACEMENT_3D ( 'NONE', #222, #18, #205 ) ;
#209 = LOCAL_TIME ( 7, 54, 20.00000000000000000, #75 ) ;
#210 = CARTESIAN_POINT ( 'NONE',  ( 3.491481338843133355E-14, 4.649255326251735731E-33, 10.00000000000000000 ) ) ;
#211 = ADVANCED_FACE ( 'NONE', ( #106, #128 ), #91, .T. ) ;
#212 = DATE_AND_TIME ( #74, #89 ) ;
#213 = CARTESIAN_POINT ( 'NONE',  ( 1.249800768328027627E-15, 0.6199999999999987743, 0.3579571668975714549 ) ) ;
#214 = LOCAL_TIME ( 7, 54, 20.00000000000000000, #146 ) ;
#215 = PERSON_AND_ORGANIZATION ( #8, #29 ) ;
#216 = CALENDAR_DATE ( 2021, 8, 10 ) ;
#217 =( LENGTH_UNIT ( ) NAMED_UNIT ( * ) SI_UNIT ( .MILLI., .METRE. ) );
#218 = LOCAL_TIME ( 7, 54, 20.00000000000000000, #39 ) ;
#219 = EDGE_LOOP ( 'NONE', ( #149 ) ) ;
#220 = EDGE_LOOP ( 'NONE', ( #13 ) ) ;
#221 = EDGE_LOOP ( 'NONE', ( #179 ) ) ;
#222 = CARTESIAN_POINT ( 'NONE',  ( 3.570097838786346574E-14, -1.252221755354200462E-15, 10.22516660498395247 ) ) ;
#223 = DIRECTION ( 'NONE',  ( -3.491481338843133355E-15, 1.224646799147353207E-16, -1.000000000000000000 ) ) ;
ENDSEC;
END-ISO-10303-21;
