ISO-10303-21;
HEADER;
FILE_DESCRIPTION (( 'STEP AP203' ),
    '1' );
FILE_NAME ('958027.step',
    '2021-10-08T08:13:16',
    ( '' ),
    ( '' ),
    'SwSTEP 2.0',
    'SolidWorks 2019',
    '' );
FILE_SCHEMA (( 'CONFIG_CONTROL_DESIGN' ));
ENDSEC;

DATA;
#1 = EDGE_LOOP ( 'NONE', ( #36 ) ) ;
#2 = ORIENTED_EDGE ( 'NONE', *, *, #33, .T. ) ;
#3 = MECHANICAL_CONTEXT ( 'NONE', #31, 'mechanical' ) ;
#4 = CC_DESIGN_DATE_AND_TIME_ASSIGNMENT ( #55, #97, ( #179 ) ) ;
#5 = AXIS2_PLACEMENT_3D ( 'NONE', #219, #83, #162 ) ;
#6 = CC_DESIGN_DATE_AND_TIME_ASSIGNMENT ( #11, #212, ( #201 ) ) ;
#7 = APPROVAL_STATUS ( 'not_yet_approved' ) ;
#8 = COORDINATED_UNIVERSAL_TIME_OFFSET ( 1, 0, .AHEAD. ) ;
#9 = PERSON ( 'UNSPECIFIED', 'UNSPECIFIED', 'UNSPECIFIED', ('UNSPECIFIED'), ('UNSPECIFIED'), ('UNSPECIFIED') ) ;
#10 = CC_DESIGN_APPROVAL ( #166, ( #201 ) ) ;
#11 = DATE_AND_TIME ( #70, #26 ) ;
#12 = PERSON_AND_ORGANIZATION ( #9, #21 ) ;
#13 = DIRECTION ( 'NONE',  ( 0.0000000000000000000, 1.000000000000000000, 0.0000000000000000000 ) ) ;
#14 = CARTESIAN_POINT ( 'NONE',  ( 3.491481338843133355E-14, 4.461785353419011741E-33, 10.00000000000000000 ) ) ;
#15 = AXIS2_PLACEMENT_3D ( 'NONE', #160, #90, #73 ) ;
#16 = CARTESIAN_POINT ( 'NONE',  ( 3.585216396467734727E-14, -1.257524631547825092E-15, 10.26846787517317594 ) ) ;
#17 = CC_DESIGN_PERSON_AND_ORGANIZATION_ASSIGNMENT ( #164, #86, ( #93 ) ) ;
#18 = ADVANCED_FACE ( 'NONE', ( #56 ), #123, .T. ) ;
#19 = ORIENTED_EDGE ( 'NONE', *, *, #92, .T. ) ;
#20 = AXIS2_PLACEMENT_3D ( 'NONE', #211, #127, #61 ) ;
#21 = ORGANIZATION ( 'UNSPECIFIED', 'UNSPECIFIED', '' ) ;
#22 = PERSON_AND_ORGANIZATION_ROLE ( 'classification_officer' ) ;
#23 = DIRECTION ( 'NONE',  ( -3.236857049390318375E-31, -1.000000000000000000, -9.110942625928625624E-17 ) ) ;
#24 = CC_DESIGN_PERSON_AND_ORGANIZATION_ASSIGNMENT ( #206, #39, ( #174 ) ) ;
#25 = CALENDAR_DATE ( 2021, 8, 10 ) ;
#26 = LOCAL_TIME ( 10, 13, 16.00000000000000000, #116 ) ;
#27 = DIRECTION ( 'NONE',  ( -3.491481338843133355E-15, 1.224646799147353207E-16, -1.000000000000000000 ) ) ;
#28 = CLOSED_SHELL ( 'NONE', ( #18, #172, #125 ) ) ;
#29 = DIRECTION ( 'NONE',  ( -3.491481338843133355E-15, 1.224646799147353207E-16, -1.000000000000000000 ) ) ;
#30 = PRODUCT_RELATED_PRODUCT_CATEGORY ( 'detail', '', ( #174 ) ) ;
#31 = APPLICATION_CONTEXT ( 'configuration controlled 3d designs of mechanical parts and assemblies' ) ;
#32 = CARTESIAN_POINT ( 'NONE',  ( 1.047444401652940007E-13, 0.5499999999999963807, 30.00000000000000000 ) ) ;
#33 = EDGE_CURVE ( 'NONE', #106, #106, #153, .T. ) ;
#34 = EDGE_LOOP ( 'NONE', ( #155 ) ) ;
#35 = CC_DESIGN_APPROVAL ( #96, ( #179 ) ) ;
#36 = ORIENTED_EDGE ( 'NONE', *, *, #118, .T. ) ;
#37 = AXIS2_PLACEMENT_3D ( 'NONE', #14, #147, #218 ) ;
#38 = PERSON_AND_ORGANIZATION ( #9, #21 ) ;
#39 = PERSON_AND_ORGANIZATION_ROLE ( 'design_owner' ) ;
#40 = CALENDAR_DATE ( 2021, 8, 10 ) ;
#41 = DIRECTION ( 'NONE',  ( -3.491481338843133355E-15, 1.224646799147353207E-16, -1.000000000000000000 ) ) ;
#42 = VERTEX_POINT ( 'NONE', #197 ) ;
#43 = DIRECTION ( 'NONE',  ( -3.491481338843133355E-15, 1.224646799147353207E-16, -1.000000000000000000 ) ) ;
#44 = CALENDAR_DATE ( 2021, 8, 10 ) ;
#45 = CIRCLE ( 'NONE', #115, 0.5500000000000000444 ) ;
#46 = VERTEX_POINT ( 'NONE', #199 ) ;
#47 = CC_DESIGN_PERSON_AND_ORGANIZATION_ASSIGNMENT ( #220, #51, ( #201 ) ) ;
#48 = FACE_OUTER_BOUND ( 'NONE', #109, .T. ) ;
#49 = LOCAL_TIME ( 10, 13, 16.00000000000000000, #8 ) ;
#50 = FACE_OUTER_BOUND ( 'NONE', #202, .T. ) ;
#51 = PERSON_AND_ORGANIZATION_ROLE ( 'creator' ) ;
#52 = ORIENTED_EDGE ( 'NONE', *, *, #113, .T. ) ;
#53 = ADVANCED_FACE ( 'NONE', ( #69, #133 ), #58, .T. ) ;
#54 = CC_DESIGN_APPROVAL ( #210, ( #93 ) ) ;
#55 = DATE_AND_TIME ( #25, #72 ) ;
#56 = FACE_OUTER_BOUND ( 'NONE', #1, .T. ) ;
#57 = COORDINATED_UNIVERSAL_TIME_OFFSET ( 1, 0, .AHEAD. ) ;
#58 = CONICAL_SURFACE ( 'NONE', #91, 0.7499999999999976685, 0.5235987755982929315 ) ;
#59 = EDGE_LOOP ( 'NONE', ( #141 ) ) ;
#60 = APPROVAL_ROLE ( '' ) ;
#61 = DIRECTION ( 'NONE',  ( 0.0000000000000000000, 1.000000000000000000, 0.0000000000000000000 ) ) ;
#62 = CC_DESIGN_SECURITY_CLASSIFICATION ( #179, ( #93 ) ) ;
#63 = DESIGN_CONTEXT ( 'detailed design', #94, 'design' ) ;
#64 = CARTESIAN_POINT ( 'NONE',  ( 3.491481338843133355E-14, -1.224646799147353256E-15, 10.00000000000000000 ) ) ;
#65 = FACE_OUTER_BOUND ( 'NONE', #213, .T. ) ;
#66 = CARTESIAN_POINT ( 'NONE',  ( 3.585216396467734727E-14, 0.7499999999999963363, 10.26846787517317594 ) ) ;
#67 = ADVANCED_FACE ( 'NONE', ( #50 ), #222, .F. ) ;
#68 = DIRECTION ( 'NONE',  ( 3.236857049390318375E-31, 1.000000000000000000, 9.110942625928625624E-17 ) ) ;
#69 = FACE_BOUND ( 'NONE', #186, .T. ) ;
#70 = CALENDAR_DATE ( 2021, 8, 10 ) ;
#71 = CARTESIAN_POINT ( 'NONE',  ( 3.491481338843133355E-14, 0.5949999999999991962, 10.00000000000000000 ) ) ;
#72 = LOCAL_TIME ( 10, 13, 16.00000000000000000, #111 ) ;
#73 = DIRECTION ( 'NONE',  ( 0.0000000000000000000, 1.000000000000000000, 0.0000000000000000000 ) ) ;
#74 = AXIS2_PLACEMENT_3D ( 'NONE', #64, #130, #183 ) ;
#75 = CC_DESIGN_PERSON_AND_ORGANIZATION_ASSIGNMENT ( #122, #22, ( #179 ) ) ;
#76 = ADVANCED_FACE ( 'NONE', ( #65, #48 ), #216, .T. ) ;
#77 = APPROVAL_ROLE ( '' ) ;
#78 = DIRECTION ( 'NONE',  ( -3.491481338843133355E-15, 1.224646799147353207E-16, -1.000000000000000000 ) ) ;
#79 = EDGE_LOOP ( 'NONE', ( #120 ) ) ;
#80 = AXIS2_PLACEMENT_3D ( 'NONE', #184, #146, #132 ) ;
#81 = CC_DESIGN_PERSON_AND_ORGANIZATION_ASSIGNMENT ( #12, #149, ( #93 ) ) ;
#82 = PRODUCT_DEFINITION_SHAPE ( 'NONE', 'NONE',  #201 ) ;
#83 = DIRECTION ( 'NONE',  ( 3.491481338843133355E-15, -1.224646799147353207E-16, 1.000000000000000000 ) ) ;
#84 = CARTESIAN_POINT ( 'NONE',  ( 1.047444401652940007E-13, 4.124339402320052999E-33, 30.00000000000000000 ) ) ;
#85 = DIRECTION ( 'NONE',  ( 3.491481338843133355E-15, -1.224646799147353207E-16, 1.000000000000000000 ) ) ;
#86 = PERSON_AND_ORGANIZATION_ROLE ( 'creator' ) ;
#87 = PLANE ( 'NONE',  #5 ) ;
#88 = CARTESIAN_POINT ( 'NONE',  ( 0.0000000000000000000, 0.0000000000000000000, 0.0000000000000000000 ) ) ;
#89 =( LENGTH_UNIT ( ) NAMED_UNIT ( * ) SI_UNIT ( .MILLI., .METRE. ) );
#90 = DIRECTION ( 'NONE',  ( -3.491481338843133355E-15, 1.224646799147353207E-16, -1.000000000000000000 ) ) ;
#91 = AXIS2_PLACEMENT_3D ( 'NONE', #198, #85, #137 ) ;
#92 = EDGE_CURVE ( 'NONE', #128, #128, #45, .T. ) ;
#93 = PRODUCT_DEFINITION_FORMATION_WITH_SPECIFIED_SOURCE ( 'ANY', '', #174, .NOT_KNOWN. ) ;
#94 = APPLICATION_CONTEXT ( 'configuration controlled 3d designs of mechanical parts and assemblies' ) ;
#95 = DATE_AND_TIME ( #175, #136 ) ;
#96 = APPROVAL ( #7, 'UNSPECIFIED' ) ;
#97 = DATE_TIME_ROLE ( 'classification_date' ) ;
#98 = APPLICATION_PROTOCOL_DEFINITION ( 'international standard', 'config_control_design', 1994, #94 ) ;
#99 = ADVANCED_FACE ( 'NONE', ( #178, #208 ), #110, .T. ) ;
#100 = CARTESIAN_POINT ( 'NONE',  ( 1.199405576056736086E-15, -4.206948446942170682E-17, 0.3435234101678306118 ) ) ;
#101 =( NAMED_UNIT ( * ) PLANE_ANGLE_UNIT ( ) SI_UNIT ( $, .RADIAN. ) );
#102 = DIRECTION ( 'NONE',  ( -3.491481338843133355E-15, 1.224646799147353207E-16, -1.000000000000000000 ) ) ;
#103 = AXIS2_PLACEMENT_3D ( 'NONE', #157, #102, #68 ) ;
#104 = CARTESIAN_POINT ( 'NONE',  ( 1.047444401652940007E-13, -3.673940397442059178E-15, 30.00000000000000000 ) ) ;
#105 = APPROVAL_DATE_TIME ( #126, #210 ) ;
#106 = VERTEX_POINT ( 'NONE', #193 ) ;
#107 = APPROVAL_DATE_TIME ( #152, #166 ) ;
#108 = ORIENTED_EDGE ( 'NONE', *, *, #92, .F. ) ;
#109 = EDGE_LOOP ( 'NONE', ( #2 ) ) ;
#110 = CONICAL_SURFACE ( 'NONE', #20, 0.5500000000000000444, 0.7853981633974512766 ) ;
#111 = COORDINATED_UNIVERSAL_TIME_OFFSET ( 1, 0, .AHEAD. ) ;
#112 = DIRECTION ( 'NONE',  ( 3.491481338843133355E-15, -1.224646799147353207E-16, 1.000000000000000000 ) ) ;
#113 = EDGE_CURVE ( 'NONE', #42, #42, #143, .T. ) ;
#114 = FACE_OUTER_BOUND ( 'NONE', #79, .T. ) ;
#115 = AXIS2_PLACEMENT_3D ( 'NONE', #104, #78, #145 ) ;
#116 = COORDINATED_UNIVERSAL_TIME_OFFSET ( 1, 0, .AHEAD. ) ;
#117 = CYLINDRICAL_SURFACE ( 'NONE', #80, 0.5949999999999996403 ) ;
#118 = EDGE_CURVE ( 'NONE', #46, #46, #196, .T. ) ;
#119 = MANIFOLD_SOLID_BREP ( 'Corps-Déplacer/Copier1[1]', #138 ) ;
#120 = ORIENTED_EDGE ( 'NONE', *, *, #135, .T. ) ;
#121 =( GEOMETRIC_REPRESENTATION_CONTEXT ( 3 ) GLOBAL_UNCERTAINTY_ASSIGNED_CONTEXT ( ( #187 ) ) GLOBAL_UNIT_ASSIGNED_CONTEXT ( ( #89, #101, #221 ) ) REPRESENTATION_CONTEXT ( 'NONE', 'WORKASPACE' ) );
#122 = PERSON_AND_ORGANIZATION ( #9, #21 ) ;
#123 = CONICAL_SURFACE ( 'NONE', #182, 0.5949999999999988631, 1.047197551196592746 ) ;
#124 = APPROVAL_DATE_TIME ( #95, #96 ) ;
#125 = ADVANCED_FACE ( 'NONE', ( #159 ), #87, .T. ) ;
#126 = DATE_AND_TIME ( #44, #151 ) ;
#127 = DIRECTION ( 'NONE',  ( -3.491481338843133355E-15, 1.224646799147353207E-16, -1.000000000000000000 ) ) ;
#128 = VERTEX_POINT ( 'NONE', #32 ) ;
#129 = CARTESIAN_POINT ( 'NONE',  ( 0.0000000000000000000, 0.0000000000000000000, 0.0000000000000000000 ) ) ;
#130 = DIRECTION ( 'NONE',  ( -3.491481338843133355E-15, 1.224646799147353207E-16, -1.000000000000000000 ) ) ;
#131 = APPLICATION_PROTOCOL_DEFINITION ( 'international standard', 'config_control_design', 1994, #31 ) ;
#132 = DIRECTION ( 'NONE',  ( 4.275831445896958607E-31, 1.000000000000000000, 1.224646799147353207E-16 ) ) ;
#133 = FACE_OUTER_BOUND ( 'NONE', #59, .T. ) ;
#134 = FACE_OUTER_BOUND ( 'NONE', #140, .T. ) ;
#135 = EDGE_CURVE ( 'NONE', #217, #217, #161, .T. ) ;
#136 = LOCAL_TIME ( 10, 13, 16.00000000000000000, #57 ) ;
#137 = DIRECTION ( 'NONE',  ( 0.0000000000000000000, -1.000000000000000000, 0.0000000000000000000 ) ) ;
#138 = CLOSED_SHELL ( 'NONE', ( #67, #53, #76, #99, #191 ) ) ;
#139 = EDGE_LOOP ( 'NONE', ( #173 ) ) ;
#140 = EDGE_LOOP ( 'NONE', ( #108 ) ) ;
#141 = ORIENTED_EDGE ( 'NONE', *, *, #150, .T. ) ;
#142 = DIRECTION ( 'NONE',  ( 0.0000000000000000000, 1.000000000000000000, 0.0000000000000000000 ) ) ;
#143 = CIRCLE ( 'NONE', #169, 0.5950000000000004174 ) ;
#144 = APPROVAL_PERSON_ORGANIZATION ( #156, #166, #60 ) ;
#145 = DIRECTION ( 'NONE',  ( 0.0000000000000000000, 1.000000000000000000, 0.0000000000000000000 ) ) ;
#146 = DIRECTION ( 'NONE',  ( -3.491481338843133355E-15, 1.224646799147353207E-16, -1.000000000000000000 ) ) ;
#147 = DIRECTION ( 'NONE',  ( 3.491481338843133355E-15, -1.224646799147353207E-16, 1.000000000000000000 ) ) ;
#148 = DIRECTION ( 'NONE',  ( 4.275831445896958607E-31, 1.000000000000000000, 1.224646799147353207E-16 ) ) ;
#149 = PERSON_AND_ORGANIZATION_ROLE ( 'design_supplier' ) ;
#150 = EDGE_CURVE ( 'NONE', #167, #167, #209, .T. ) ;
#151 = LOCAL_TIME ( 10, 13, 16.00000000000000000, #195 ) ;
#152 = DATE_AND_TIME ( #40, #49 ) ;
#153 = CIRCLE ( 'NONE', #15, 0.7500000000000000000 ) ;
#154 = ORIENTED_EDGE ( 'NONE', *, *, #135, .F. ) ;
#155 = ORIENTED_EDGE ( 'NONE', *, *, #33, .F. ) ;
#156 = PERSON_AND_ORGANIZATION ( #9, #21 ) ;
#157 = CARTESIAN_POINT ( 'NONE',  ( 1.199405576056736086E-15, -4.206948446942170682E-17, 0.3435234101678306118 ) ) ;
#158 = APPROVAL_PERSON_ORGANIZATION ( #215, #210, #163 ) ;
#159 = FACE_OUTER_BOUND ( 'NONE', #200, .T. ) ;
#160 = CARTESIAN_POINT ( 'NONE',  ( 1.040461438975253740E-13, -3.649447461459112464E-15, 29.80000000000000071 ) ) ;
#161 = CIRCLE ( 'NONE', #74, 0.5950000000000004174 ) ;
#162 = DIRECTION ( 'NONE',  ( -4.275831445896958607E-31, -1.000000000000000000, -1.224646799147353207E-16 ) ) ;
#163 = APPROVAL_ROLE ( '' ) ;
#164 = PERSON_AND_ORGANIZATION ( #9, #21 ) ;
#165 = DIRECTION ( 'NONE',  ( 0.0000000000000000000, 0.0000000000000000000, 1.000000000000000000 ) ) ;
#166 = APPROVAL ( #176, 'UNSPECIFIED' ) ;
#167 = VERTEX_POINT ( 'NONE', #66 ) ;
#168 = ORIENTED_EDGE ( 'NONE', *, *, #113, .F. ) ;
#169 = AXIS2_PLACEMENT_3D ( 'NONE', #192, #41, #142 ) ;
#170 = AXIS2_PLACEMENT_3D ( 'NONE', #16, #29, #13 ) ;
#171 = ORIENTED_EDGE ( 'NONE', *, *, #150, .F. ) ;
#172 = ADVANCED_FACE ( 'NONE', ( #180, #114 ), #117, .T. ) ;
#173 = ORIENTED_EDGE ( 'NONE', *, *, #118, .F. ) ;
#174 = PRODUCT ( '958027', '958027', '', ( #3 ) ) ;
#175 = CALENDAR_DATE ( 2021, 8, 10 ) ;
#176 = APPROVAL_STATUS ( 'not_yet_approved' ) ;
#177 = SECURITY_CLASSIFICATION_LEVEL ( 'unclassified' ) ;
#178 = FACE_OUTER_BOUND ( 'NONE', #34, .T. ) ;
#179 = SECURITY_CLASSIFICATION ( '', '', #177 ) ;
#180 = FACE_OUTER_BOUND ( 'NONE', #139, .T. ) ;
#181 = DIRECTION ( 'NONE',  ( 4.275831445896959482E-31, 1.000000000000000000, 1.224646799147353207E-16 ) ) ;
#182 = AXIS2_PLACEMENT_3D ( 'NONE', #100, #112, #23 ) ;
#183 = DIRECTION ( 'NONE',  ( 0.0000000000000000000, 1.000000000000000000, 0.0000000000000000000 ) ) ;
#184 = CARTESIAN_POINT ( 'NONE',  ( 0.0000000000000000000, 0.0000000000000000000, 0.0000000000000000000 ) ) ;
#185 = ADVANCED_BREP_SHAPE_REPRESENTATION ( '958027', ( #119, #190, #205 ), #121 ) ;
#186 = EDGE_LOOP ( 'NONE', ( #168 ) ) ;
#187 = UNCERTAINTY_MEASURE_WITH_UNIT (LENGTH_MEASURE( 1.000000000000000082E-05 ), #89, 'distance_accuracy_value', 'NONE');
#188 = APPROVAL_PERSON_ORGANIZATION ( #38, #96, #77 ) ;
#189 = AXIS2_PLACEMENT_3D ( 'NONE', #129, #43, #181 ) ;
#190 = MANIFOLD_SOLID_BREP ( 'Corps-Déplacer/Copier1[2]', #28 ) ;
#191 = ADVANCED_FACE ( 'NONE', ( #134 ), #214, .F. ) ;
#192 = CARTESIAN_POINT ( 'NONE',  ( 3.491481338843133355E-14, -1.224646799147353256E-15, 10.00000000000000000 ) ) ;
#193 = CARTESIAN_POINT ( 'NONE',  ( 1.040461438975253740E-13, 0.7499999999999963363, 29.80000000000000071 ) ) ;
#194 = APPROVAL_STATUS ( 'not_yet_approved' ) ;
#195 = COORDINATED_UNIVERSAL_TIME_OFFSET ( 1, 0, .AHEAD. ) ;
#196 = CIRCLE ( 'NONE', #103, 0.5949999999999988631 ) ;
#197 = CARTESIAN_POINT ( 'NONE',  ( 3.491481338843133355E-14, 0.5949999999999991962, 10.00000000000000000 ) ) ;
#198 = CARTESIAN_POINT ( 'NONE',  ( 3.585216396467734727E-14, -1.257524631547825092E-15, 10.26846787517317594 ) ) ;
#199 = CARTESIAN_POINT ( 'NONE',  ( 1.199405576056736283E-15, 0.5949999999999988631, 0.3435234101678306673 ) ) ;
#200 = EDGE_LOOP ( 'NONE', ( #154 ) ) ;
#201 = PRODUCT_DEFINITION ( 'UNKNOWN', '', #93, #63 ) ;
#202 = EDGE_LOOP ( 'NONE', ( #52 ) ) ;
#203 = EDGE_LOOP ( 'NONE', ( #19 ) ) ;
#204 = SHAPE_DEFINITION_REPRESENTATION ( #82, #185 ) ;
#205 = AXIS2_PLACEMENT_3D ( 'NONE', #88, #165, #207 ) ;
#206 = PERSON_AND_ORGANIZATION ( #9, #21 ) ;
#207 = DIRECTION ( 'NONE',  ( 1.000000000000000000, 0.0000000000000000000, 0.0000000000000000000 ) ) ;
#208 = FACE_BOUND ( 'NONE', #203, .T. ) ;
#209 = CIRCLE ( 'NONE', #170, 0.7499999999999976685 ) ;
#210 = APPROVAL ( #194, 'UNSPECIFIED' ) ;
#211 = CARTESIAN_POINT ( 'NONE',  ( 1.047444401652940007E-13, -3.673940397442059178E-15, 30.00000000000000000 ) ) ;
#212 = DATE_TIME_ROLE ( 'creation_date' ) ;
#213 = EDGE_LOOP ( 'NONE', ( #171 ) ) ;
#214 = PLANE ( 'NONE',  #223 ) ;
#215 = PERSON_AND_ORGANIZATION ( #9, #21 ) ;
#216 = CYLINDRICAL_SURFACE ( 'NONE', #189, 0.7499999999999987788 ) ;
#217 = VERTEX_POINT ( 'NONE', #71 ) ;
#218 = DIRECTION ( 'NONE',  ( -4.275831445896958607E-31, -1.000000000000000000, -1.224646799147353207E-16 ) ) ;
#219 = CARTESIAN_POINT ( 'NONE',  ( 3.491481338843133355E-14, 4.461785353419011741E-33, 10.00000000000000000 ) ) ;
#220 = PERSON_AND_ORGANIZATION ( #9, #21 ) ;
#221 =( NAMED_UNIT ( * ) SI_UNIT ( $, .STERADIAN. ) SOLID_ANGLE_UNIT ( ) );
#222 = PLANE ( 'NONE',  #37 ) ;
#223 = AXIS2_PLACEMENT_3D ( 'NONE', #84, #27, #148 ) ;
ENDSEC;
END-ISO-10303-21;
