ISO-10303-21;
HEADER;
FILE_DESCRIPTION (( 'STEP AP203' ),
    '1' );
FILE_NAME ('958026.step',
    '2021-10-08T05:54:19',
    ( '' ),
    ( '' ),
    'SwSTEP 2.0',
    'SolidWorks 2019',
    '' );
FILE_SCHEMA (( 'CONFIG_CONTROL_DESIGN' ));
ENDSEC;

DATA;
#1 = CALENDAR_DATE ( 2021, 8, 10 ) ;
#2 = AXIS2_PLACEMENT_3D ( 'NONE', #47, #80, #139 ) ;
#3 = DATE_TIME_ROLE ( 'classification_date' ) ;
#4 = PERSON_AND_ORGANIZATION_ROLE ( 'creator' ) ;
#5 = EDGE_CURVE ( 'NONE', #172, #172, #173, .T. ) ;
#6 = CIRCLE ( 'NONE', #120, 0.5950000000000004174 ) ;
#7 = EDGE_LOOP ( 'NONE', ( #132 ) ) ;
#8 = DIRECTION ( 'NONE',  ( 0.0000000000000000000, 1.000000000000000000, 0.0000000000000000000 ) ) ;
#9 = DIRECTION ( 'NONE',  ( 3.236857049390318375E-31, 1.000000000000000000, 9.110942625928625624E-17 ) ) ;
#10 = PLANE ( 'NONE',  #215 ) ;
#11 = ORIENTED_EDGE ( 'NONE', *, *, #213, .F. ) ;
#12 =( LENGTH_UNIT ( ) NAMED_UNIT ( * ) SI_UNIT ( .MILLI., .METRE. ) );
#13 = DIRECTION ( 'NONE',  ( 4.275831445896958607E-31, 1.000000000000000000, 1.224646799147353207E-16 ) ) ;
#14 = ADVANCED_FACE ( 'NONE', ( #181 ), #88, .T. ) ;
#15 =( NAMED_UNIT ( * ) PLANE_ANGLE_UNIT ( ) SI_UNIT ( $, .RADIAN. ) );
#16 = SHAPE_DEFINITION_REPRESENTATION ( #185, #87 ) ;
#17 = COORDINATED_UNIVERSAL_TIME_OFFSET ( 1, 0, .AHEAD. ) ;
#18 = APPROVAL_DATE_TIME ( #50, #107 ) ;
#19 = PERSON_AND_ORGANIZATION_ROLE ( 'creator' ) ;
#20 = ORIENTED_EDGE ( 'NONE', *, *, #5, .T. ) ;
#21 = DIRECTION ( 'NONE',  ( -3.236857049390318375E-31, -1.000000000000000000, -9.110942625928625624E-17 ) ) ;
#22 = ORIENTED_EDGE ( 'NONE', *, *, #40, .T. ) ;
#23 = DIRECTION ( 'NONE',  ( -4.275831445896958607E-31, -1.000000000000000000, -1.224646799147353207E-16 ) ) ;
#24 = EDGE_LOOP ( 'NONE', ( #199 ) ) ;
#25 = CYLINDRICAL_SURFACE ( 'NONE', #190, 0.5949999999999996403 ) ;
#26 = CARTESIAN_POINT ( 'NONE',  ( 1.047444401652940007E-13, -3.673940397442059178E-15, 30.00000000000000000 ) ) ;
#27 = ADVANCED_FACE ( 'NONE', ( #178, #41 ), #206, .T. ) ;
#28 = VERTEX_POINT ( 'NONE', #169 ) ;
#29 = AXIS2_PLACEMENT_3D ( 'NONE', #26, #30, #137 ) ;
#30 = DIRECTION ( 'NONE',  ( -3.491481338843133355E-15, 1.224646799147353207E-16, -1.000000000000000000 ) ) ;
#31 = SECURITY_CLASSIFICATION_LEVEL ( 'unclassified' ) ;
#32 = PERSON_AND_ORGANIZATION_ROLE ( 'design_owner' ) ;
#33 = APPROVAL_STATUS ( 'not_yet_approved' ) ;
#34 = CC_DESIGN_DATE_AND_TIME_ASSIGNMENT ( #124, #197, ( #157 ) ) ;
#35 = UNCERTAINTY_MEASURE_WITH_UNIT (LENGTH_MEASURE( 1.000000000000000082E-05 ), #12, 'distance_accuracy_value', 'NONE');
#36 = AXIS2_PLACEMENT_3D ( 'NONE', #129, #202, #78 ) ;
#37 = LOCAL_TIME ( 7, 54, 19.00000000000000000, #143 ) ;
#38 = DIRECTION ( 'NONE',  ( 3.491481338843133355E-15, -1.224646799147353207E-16, 1.000000000000000000 ) ) ;
#39 = CARTESIAN_POINT ( 'NONE',  ( 3.491481338843133355E-14, 4.461785353419011741E-33, 10.00000000000000000 ) ) ;
#40 = EDGE_CURVE ( 'NONE', #60, #60, #170, .T. ) ;
#41 = FACE_OUTER_BOUND ( 'NONE', #7, .T. ) ;
#42 = CIRCLE ( 'NONE', #104, 0.7500000000000001110 ) ;
#43 = APPROVAL_PERSON_ORGANIZATION ( #156, #183, #51 ) ;
#44 = DIRECTION ( 'NONE',  ( -3.491481338843133355E-15, 1.224646799147353207E-16, -1.000000000000000000 ) ) ;
#45 = CARTESIAN_POINT ( 'NONE',  ( 3.491481338843133355E-14, 0.5949999999999991962, 10.00000000000000000 ) ) ;
#46 = APPLICATION_CONTEXT ( 'configuration controlled 3d designs of mechanical parts and assemblies' ) ;
#47 = CARTESIAN_POINT ( 'NONE',  ( 0.0000000000000000000, 0.0000000000000000000, 0.0000000000000000000 ) ) ;
#48 = DIRECTION ( 'NONE',  ( -3.491481338843133355E-15, 1.224646799147353207E-16, -1.000000000000000000 ) ) ;
#49 = APPROVAL_STATUS ( 'not_yet_approved' ) ;
#50 = DATE_AND_TIME ( #68, #171 ) ;
#51 = APPROVAL_ROLE ( '' ) ;
#52 = PERSON_AND_ORGANIZATION_ROLE ( 'design_supplier' ) ;
#53 = ADVANCED_FACE ( 'NONE', ( #75 ), #89, .T. ) ;
#54 = ORIENTED_EDGE ( 'NONE', *, *, #192, .F. ) ;
#55 = CC_DESIGN_PERSON_AND_ORGANIZATION_ASSIGNMENT ( #85, #52, ( #84 ) ) ;
#56 = EDGE_LOOP ( 'NONE', ( #109 ) ) ;
#57 = DIRECTION ( 'NONE',  ( -3.491481338843133355E-15, 1.224646799147353207E-16, -1.000000000000000000 ) ) ;
#58 = DIRECTION ( 'NONE',  ( -3.491481338843133355E-15, 1.224646799147353207E-16, -1.000000000000000000 ) ) ;
#59 = DIRECTION ( 'NONE',  ( 0.0000000000000000000, 0.0000000000000000000, 1.000000000000000000 ) ) ;
#60 = VERTEX_POINT ( 'NONE', #103 ) ;
#61 = DIRECTION ( 'NONE',  ( 0.0000000000000000000, 1.000000000000000000, 0.0000000000000000000 ) ) ;
#62 = CYLINDRICAL_SURFACE ( 'NONE', #2, 0.7499999999999988898 ) ;
#63 = CC_DESIGN_APPROVAL ( #116, ( #157 ) ) ;
#64 = CARTESIAN_POINT ( 'NONE',  ( 3.491481338843133355E-14, -1.224646799147353256E-15, 10.00000000000000000 ) ) ;
#65 = PERSON ( 'UNSPECIFIED', 'UNSPECIFIED', 'UNSPECIFIED', ('UNSPECIFIED'), ('UNSPECIFIED'), ('UNSPECIFIED') ) ;
#66 = APPROVAL_DATE_TIME ( #86, #183 ) ;
#67 = APPROVAL_PERSON_ORGANIZATION ( #155, #116, #119 ) ;
#68 = CALENDAR_DATE ( 2021, 8, 10 ) ;
#69 = DATE_AND_TIME ( #208, #133 ) ;
#70 = PRODUCT_RELATED_PRODUCT_CATEGORY ( 'detail', '', ( #142 ) ) ;
#71 = APPLICATION_PROTOCOL_DEFINITION ( 'international standard', 'config_control_design', 1994, #46 ) ;
#72 = EDGE_LOOP ( 'NONE', ( #22 ) ) ;
#73 = EDGE_LOOP ( 'NONE', ( #110 ) ) ;
#74 = CC_DESIGN_PERSON_AND_ORGANIZATION_ASSIGNMENT ( #210, #19, ( #157 ) ) ;
#75 = FACE_OUTER_BOUND ( 'NONE', #72, .T. ) ;
#76 = CLOSED_SHELL ( 'NONE', ( #136, #27, #204, #217, #163 ) ) ;
#77 = CARTESIAN_POINT ( 'NONE',  ( 1.047444401652940007E-13, 4.124339402320052999E-33, 30.00000000000000000 ) ) ;
#78 = DIRECTION ( 'NONE',  ( -4.275831445896958607E-31, -1.000000000000000000, -1.224646799147353207E-16 ) ) ;
#79 = AXIS2_PLACEMENT_3D ( 'NONE', #97, #189, #207 ) ;
#80 = DIRECTION ( 'NONE',  ( -3.491481338843133355E-15, 1.224646799147353207E-16, -1.000000000000000000 ) ) ;
#81 = CC_DESIGN_DATE_AND_TIME_ASSIGNMENT ( #125, #3, ( #150 ) ) ;
#82 = FACE_BOUND ( 'NONE', #146, .T. ) ;
#83 = CIRCLE ( 'NONE', #112, 0.5950000000000004174 ) ;
#84 = PRODUCT_DEFINITION_FORMATION_WITH_SPECIFIED_SOURCE ( 'ANY', '', #142, .NOT_KNOWN. ) ;
#85 = PERSON_AND_ORGANIZATION ( #65, #203 ) ;
#86 = DATE_AND_TIME ( #122, #37 ) ;
#87 = ADVANCED_BREP_SHAPE_REPRESENTATION ( '958026', ( #100, #182, #90 ), #147 ) ;
#88 = PLANE ( 'NONE',  #36 ) ;
#89 = CONICAL_SURFACE ( 'NONE', #98, 0.5949999999999988631, 1.047197551196592746 ) ;
#90 = AXIS2_PLACEMENT_3D ( 'NONE', #223, #59, #191 ) ;
#91 = CARTESIAN_POINT ( 'NONE',  ( 3.491481338843133355E-14, -1.224646799147353256E-15, 10.00000000000000000 ) ) ;
#92 = CC_DESIGN_PERSON_AND_ORGANIZATION_ASSIGNMENT ( #102, #32, ( #142 ) ) ;
#93 = FACE_OUTER_BOUND ( 'NONE', #56, .T. ) ;
#94 = ORIENTED_EDGE ( 'NONE', *, *, #40, .F. ) ;
#95 = VERTEX_POINT ( 'NONE', #115 ) ;
#96 = EDGE_CURVE ( 'NONE', #153, #153, #83, .T. ) ;
#97 = CARTESIAN_POINT ( 'NONE',  ( 3.585216396467734727E-14, -1.257524631547825092E-15, 10.26846787517317594 ) ) ;
#98 = AXIS2_PLACEMENT_3D ( 'NONE', #108, #180, #21 ) ;
#99 =( NAMED_UNIT ( * ) SI_UNIT ( $, .STERADIAN. ) SOLID_ANGLE_UNIT ( ) );
#100 = MANIFOLD_SOLID_BREP ( 'Corps-Déplacer/Copier1[1]', #76 ) ;
#101 = CC_DESIGN_PERSON_AND_ORGANIZATION_ASSIGNMENT ( #194, #4, ( #84 ) ) ;
#102 = PERSON_AND_ORGANIZATION ( #65, #203 ) ;
#103 = CARTESIAN_POINT ( 'NONE',  ( 1.199405576056736283E-15, 0.5949999999999988631, 0.3435234101678306673 ) ) ;
#104 = AXIS2_PLACEMENT_3D ( 'NONE', #193, #48, #61 ) ;
#105 = PERSON_AND_ORGANIZATION_ROLE ( 'classification_officer' ) ;
#106 = LOCAL_TIME ( 7, 54, 19.00000000000000000, #121 ) ;
#107 = APPROVAL ( #175, 'UNSPECIFIED' ) ;
#108 = CARTESIAN_POINT ( 'NONE',  ( 1.199405576056736086E-15, -4.206948446942170682E-17, 0.3435234101678306118 ) ) ;
#109 = ORIENTED_EDGE ( 'NONE', *, *, #5, .F. ) ;
#110 = ORIENTED_EDGE ( 'NONE', *, *, #96, .T. ) ;
#111 = EDGE_LOOP ( 'NONE', ( #54 ) ) ;
#112 = AXIS2_PLACEMENT_3D ( 'NONE', #91, #57, #8 ) ;
#113 = DIRECTION ( 'NONE',  ( -3.491481338843133355E-15, 1.224646799147353207E-16, -1.000000000000000000 ) ) ;
#114 = MECHANICAL_CONTEXT ( 'NONE', #187, 'mechanical' ) ;
#115 = CARTESIAN_POINT ( 'NONE',  ( 3.491481338843133355E-14, 0.5949999999999991962, 10.00000000000000000 ) ) ;
#116 = APPROVAL ( #33, 'UNSPECIFIED' ) ;
#117 = FACE_OUTER_BOUND ( 'NONE', #164, .T. ) ;
#118 = FACE_OUTER_BOUND ( 'NONE', #145, .T. ) ;
#119 = APPROVAL_ROLE ( '' ) ;
#120 = AXIS2_PLACEMENT_3D ( 'NONE', #64, #113, #140 ) ;
#121 = COORDINATED_UNIVERSAL_TIME_OFFSET ( 1, 0, .AHEAD. ) ;
#122 = CALENDAR_DATE ( 2021, 8, 10 ) ;
#123 = CC_DESIGN_PERSON_AND_ORGANIZATION_ASSIGNMENT ( #196, #105, ( #150 ) ) ;
#124 = DATE_AND_TIME ( #1, #127 ) ;
#125 = DATE_AND_TIME ( #159, #106 ) ;
#126 = CLOSED_SHELL ( 'NONE', ( #53, #221, #14 ) ) ;
#127 = LOCAL_TIME ( 7, 54, 19.00000000000000000, #154 ) ;
#128 = DIRECTION ( 'NONE',  ( 0.0000000000000000000, 1.000000000000000000, 0.0000000000000000000 ) ) ;
#129 = CARTESIAN_POINT ( 'NONE',  ( 3.491481338843133355E-14, 4.461785353419011741E-33, 10.00000000000000000 ) ) ;
#130 = CONICAL_SURFACE ( 'NONE', #29, 0.5500000000000000444, 0.7853981633974516097 ) ;
#131 = EDGE_LOOP ( 'NONE', ( #11 ) ) ;
#132 = ORIENTED_EDGE ( 'NONE', *, *, #213, .T. ) ;
#133 = LOCAL_TIME ( 7, 54, 19.00000000000000000, #17 ) ;
#134 = APPLICATION_PROTOCOL_DEFINITION ( 'international standard', 'config_control_design', 1994, #187 ) ;
#135 = CARTESIAN_POINT ( 'NONE',  ( 0.0000000000000000000, 0.0000000000000000000, 0.0000000000000000000 ) ) ;
#136 = ADVANCED_FACE ( 'NONE', ( #167 ), #200, .F. ) ;
#137 = DIRECTION ( 'NONE',  ( 0.0000000000000000000, 1.000000000000000000, 0.0000000000000000000 ) ) ;
#138 = CC_DESIGN_SECURITY_CLASSIFICATION ( #150, ( #84 ) ) ;
#139 = DIRECTION ( 'NONE',  ( 4.275831445896959482E-31, 1.000000000000000000, 1.224646799147353207E-16 ) ) ;
#140 = DIRECTION ( 'NONE',  ( 0.0000000000000000000, 1.000000000000000000, 0.0000000000000000000 ) ) ;
#141 = PERSON_AND_ORGANIZATION ( #65, #203 ) ;
#142 = PRODUCT ( '958026', '958026', '', ( #114 ) ) ;
#143 = COORDINATED_UNIVERSAL_TIME_OFFSET ( 1, 0, .AHEAD. ) ;
#144 = AXIS2_PLACEMENT_3D ( 'NONE', #39, #184, #23 ) ;
#145 = EDGE_LOOP ( 'NONE', ( #201 ) ) ;
#146 = EDGE_LOOP ( 'NONE', ( #20 ) ) ;
#147 =( GEOMETRIC_REPRESENTATION_CONTEXT ( 3 ) GLOBAL_UNCERTAINTY_ASSIGNED_CONTEXT ( ( #35 ) ) GLOBAL_UNIT_ASSIGNED_CONTEXT ( ( #12, #15, #99 ) ) REPRESENTATION_CONTEXT ( 'NONE', 'WORKASPACE' ) );
#148 = DIRECTION ( 'NONE',  ( -3.491481338843133355E-15, 1.224646799147353207E-16, -1.000000000000000000 ) ) ;
#149 = CARTESIAN_POINT ( 'NONE',  ( 1.199405576056736086E-15, -4.206948446942170682E-17, 0.3435234101678306118 ) ) ;
#150 = SECURITY_CLASSIFICATION ( '', '', #31 ) ;
#151 = CARTESIAN_POINT ( 'NONE',  ( 1.047444401652940007E-13, 0.5499999999999963807, 30.00000000000000000 ) ) ;
#152 = FACE_OUTER_BOUND ( 'NONE', #131, .T. ) ;
#153 = VERTEX_POINT ( 'NONE', #45 ) ;
#154 = COORDINATED_UNIVERSAL_TIME_OFFSET ( 1, 0, .AHEAD. ) ;
#155 = PERSON_AND_ORGANIZATION ( #65, #203 ) ;
#156 = PERSON_AND_ORGANIZATION ( #65, #203 ) ;
#157 = PRODUCT_DEFINITION ( 'UNKNOWN', '', #84, #166 ) ;
#158 = CC_DESIGN_APPROVAL ( #107, ( #150 ) ) ;
#159 = CALENDAR_DATE ( 2021, 8, 10 ) ;
#160 = AXIS2_PLACEMENT_3D ( 'NONE', #216, #214, #128 ) ;
#161 = APPROVAL_PERSON_ORGANIZATION ( #141, #107, #209 ) ;
#162 = CARTESIAN_POINT ( 'NONE',  ( 3.585216396467734727E-14, -1.257524631547825092E-15, 10.26846787517317594 ) ) ;
#163 = ADVANCED_FACE ( 'NONE', ( #93 ), #10, .F. ) ;
#164 = EDGE_LOOP ( 'NONE', ( #198 ) ) ;
#165 = DIRECTION ( 'NONE',  ( 0.0000000000000000000, -1.000000000000000000, 0.0000000000000000000 ) ) ;
#166 = DESIGN_CONTEXT ( 'detailed design', #46, 'design' ) ;
#167 = FACE_OUTER_BOUND ( 'NONE', #73, .T. ) ;
#168 = ORIENTED_EDGE ( 'NONE', *, *, #176, .T. ) ;
#169 = CARTESIAN_POINT ( 'NONE',  ( 1.040461438975253740E-13, 0.7499999999999964473, 29.80000000000000071 ) ) ;
#170 = CIRCLE ( 'NONE', #195, 0.5949999999999988631 ) ;
#171 = LOCAL_TIME ( 7, 54, 19.00000000000000000, #174 ) ;
#172 = VERTEX_POINT ( 'NONE', #151 ) ;
#173 = CIRCLE ( 'NONE', #160, 0.5500000000000000444 ) ;
#174 = COORDINATED_UNIVERSAL_TIME_OFFSET ( 1, 0, .AHEAD. ) ;
#175 = APPROVAL_STATUS ( 'not_yet_approved' ) ;
#176 = EDGE_CURVE ( 'NONE', #28, #28, #42, .T. ) ;
#177 = APPROVAL_DATE_TIME ( #69, #116 ) ;
#178 = FACE_BOUND ( 'NONE', #24, .T. ) ;
#179 = CIRCLE ( 'NONE', #79, 0.7499999999999976685 ) ;
#180 = DIRECTION ( 'NONE',  ( 3.491481338843133355E-15, -1.224646799147353207E-16, 1.000000000000000000 ) ) ;
#181 = FACE_OUTER_BOUND ( 'NONE', #111, .T. ) ;
#182 = MANIFOLD_SOLID_BREP ( 'Corps-Déplacer/Copier1[2]', #126 ) ;
#183 = APPROVAL ( #49, 'UNSPECIFIED' ) ;
#184 = DIRECTION ( 'NONE',  ( 3.491481338843133355E-15, -1.224646799147353207E-16, 1.000000000000000000 ) ) ;
#185 = PRODUCT_DEFINITION_SHAPE ( 'NONE', 'NONE',  #157 ) ;
#186 = EDGE_LOOP ( 'NONE', ( #168 ) ) ;
#187 = APPLICATION_CONTEXT ( 'configuration controlled 3d designs of mechanical parts and assemblies' ) ;
#188 = CARTESIAN_POINT ( 'NONE',  ( 3.585216396467734727E-14, 0.7499999999999963363, 10.26846787517317594 ) ) ;
#189 = DIRECTION ( 'NONE',  ( -3.491481338843133355E-15, 1.224646799147353207E-16, -1.000000000000000000 ) ) ;
#190 = AXIS2_PLACEMENT_3D ( 'NONE', #135, #44, #219 ) ;
#191 = DIRECTION ( 'NONE',  ( 1.000000000000000000, 0.0000000000000000000, 0.0000000000000000000 ) ) ;
#192 = EDGE_CURVE ( 'NONE', #95, #95, #6, .T. ) ;
#193 = CARTESIAN_POINT ( 'NONE',  ( 1.040461438975253740E-13, -3.649447461459112464E-15, 29.80000000000000071 ) ) ;
#194 = PERSON_AND_ORGANIZATION ( #65, #203 ) ;
#195 = AXIS2_PLACEMENT_3D ( 'NONE', #149, #58, #9 ) ;
#196 = PERSON_AND_ORGANIZATION ( #65, #203 ) ;
#197 = DATE_TIME_ROLE ( 'creation_date' ) ;
#198 = ORIENTED_EDGE ( 'NONE', *, *, #192, .T. ) ;
#199 = ORIENTED_EDGE ( 'NONE', *, *, #96, .F. ) ;
#200 = PLANE ( 'NONE',  #144 ) ;
#201 = ORIENTED_EDGE ( 'NONE', *, *, #176, .F. ) ;
#202 = DIRECTION ( 'NONE',  ( 3.491481338843133355E-15, -1.224646799147353207E-16, 1.000000000000000000 ) ) ;
#203 = ORGANIZATION ( 'UNSPECIFIED', 'UNSPECIFIED', '' ) ;
#204 = ADVANCED_FACE ( 'NONE', ( #152, #222 ), #62, .T. ) ;
#205 = VERTEX_POINT ( 'NONE', #188 ) ;
#206 = CONICAL_SURFACE ( 'NONE', #211, 0.7499999999999976685, 0.5235987755982929315 ) ;
#207 = DIRECTION ( 'NONE',  ( 0.0000000000000000000, 1.000000000000000000, 0.0000000000000000000 ) ) ;
#208 = CALENDAR_DATE ( 2021, 8, 10 ) ;
#209 = APPROVAL_ROLE ( '' ) ;
#210 = PERSON_AND_ORGANIZATION ( #65, #203 ) ;
#211 = AXIS2_PLACEMENT_3D ( 'NONE', #162, #38, #165 ) ;
#212 = EDGE_LOOP ( 'NONE', ( #94 ) ) ;
#213 = EDGE_CURVE ( 'NONE', #205, #205, #179, .T. ) ;
#214 = DIRECTION ( 'NONE',  ( -3.491481338843133355E-15, 1.224646799147353207E-16, -1.000000000000000000 ) ) ;
#215 = AXIS2_PLACEMENT_3D ( 'NONE', #77, #148, #13 ) ;
#216 = CARTESIAN_POINT ( 'NONE',  ( 1.047444401652940007E-13, -3.673940397442059178E-15, 30.00000000000000000 ) ) ;
#217 = ADVANCED_FACE ( 'NONE', ( #118, #82 ), #130, .T. ) ;
#218 = CC_DESIGN_APPROVAL ( #183, ( #84 ) ) ;
#219 = DIRECTION ( 'NONE',  ( 4.275831445896958607E-31, 1.000000000000000000, 1.224646799147353207E-16 ) ) ;
#220 = FACE_OUTER_BOUND ( 'NONE', #212, .T. ) ;
#221 = ADVANCED_FACE ( 'NONE', ( #220, #117 ), #25, .T. ) ;
#222 = FACE_OUTER_BOUND ( 'NONE', #186, .T. ) ;
#223 = CARTESIAN_POINT ( 'NONE',  ( 0.0000000000000000000, 0.0000000000000000000, 0.0000000000000000000 ) ) ;
ENDSEC;
END-ISO-10303-21;
