ISO-10303-21;
HEADER;
FILE_DESCRIPTION (( 'STEP AP203' ),
    '1' );
FILE_NAME ('958024.step',
    '2021-10-08T08:13:15',
    ( '' ),
    ( '' ),
    'SwSTEP 2.0',
    'SolidWorks 2019',
    '' );
FILE_SCHEMA (( 'CONFIG_CONTROL_DESIGN' ));
ENDSEC;

DATA;
#1 = APPROVAL_PERSON_ORGANIZATION ( #28, #193, #119 ) ;
#2 = CIRCLE ( 'NONE', #31, 0.5500000000000000444 ) ;
#3 = DESIGN_CONTEXT ( 'detailed design', #125, 'design' ) ;
#4 = CARTESIAN_POINT ( 'NONE',  ( 3.142333204958820020E-14, 0.5699999999999988409, 9.000000000000000000 ) ) ;
#5 = AXIS2_PLACEMENT_3D ( 'NONE', #81, #61, #120 ) ;
#6 = CARTESIAN_POINT ( 'NONE',  ( 1.149010383785444741E-15, -4.030185907154684881E-17, 0.3290896534380898242 ) ) ;
#7 = PRODUCT_DEFINITION ( 'UNKNOWN', '', #211, #3 ) ;
#8 = DIRECTION ( 'NONE',  ( 3.491481338843133355E-15, -1.224646799147353207E-16, 1.000000000000000000 ) ) ;
#9 = PERSON_AND_ORGANIZATION_ROLE ( 'design_owner' ) ;
#10 = COORDINATED_UNIVERSAL_TIME_OFFSET ( 1, 0, .AHEAD. ) ;
#11 = APPROVAL_ROLE ( '' ) ;
#12 = CARTESIAN_POINT ( 'NONE',  ( 3.142333204958820020E-14, -1.102182119232617714E-15, 9.000000000000000000 ) ) ;
#13 = PERSON_AND_ORGANIZATION ( #203, #63 ) ;
#14 = DIRECTION ( 'NONE',  ( 0.0000000000000000000, 1.000000000000000000, 0.0000000000000000000 ) ) ;
#15 = CC_DESIGN_PERSON_AND_ORGANIZATION_ASSIGNMENT ( #76, #39, ( #211 ) ) ;
#16 = COORDINATED_UNIVERSAL_TIME_OFFSET ( 1, 0, .AHEAD. ) ;
#17 = FACE_OUTER_BOUND ( 'NONE', #94, .T. ) ;
#18 = CONICAL_SURFACE ( 'NONE', #180, 0.5699999999999988409, 1.047197551196592746 ) ;
#19 = AXIS2_PLACEMENT_3D ( 'NONE', #168, #173, #174 ) ;
#20 = DIRECTION ( 'NONE',  ( -3.378824463837262582E-31, -1.000000000000000000, -9.510545372679882313E-17 ) ) ;
#21 = VERTEX_POINT ( 'NONE', #35 ) ;
#22 = VERTEX_POINT ( 'NONE', #88 ) ;
#23 = PERSON_AND_ORGANIZATION_ROLE ( 'design_supplier' ) ;
#24 = AXIS2_PLACEMENT_3D ( 'NONE', #62, #99, #29 ) ;
#25 = ADVANCED_FACE ( 'NONE', ( #155 ), #205, .T. ) ;
#26 = EDGE_LOOP ( 'NONE', ( #134 ) ) ;
#27 = LOCAL_TIME ( 10, 13, 15.00000000000000000, #16 ) ;
#28 = PERSON_AND_ORGANIZATION ( #203, #63 ) ;
#29 = DIRECTION ( 'NONE',  ( 4.275831445896959482E-31, 1.000000000000000000, 1.224646799147353207E-16 ) ) ;
#30 = DIRECTION ( 'NONE',  ( 4.275831445896958607E-31, 1.000000000000000000, 1.224646799147353207E-16 ) ) ;
#31 = AXIS2_PLACEMENT_3D ( 'NONE', #170, #59, #135 ) ;
#32 = EDGE_CURVE ( 'NONE', #22, #22, #2, .T. ) ;
#33 = LOCAL_TIME ( 10, 13, 15.00000000000000000, #10 ) ;
#34 = AXIS2_PLACEMENT_3D ( 'NONE', #163, #8, #195 ) ;
#35 = CARTESIAN_POINT ( 'NONE',  ( 1.040461438975253740E-13, 0.7499999999999963363, 29.80000000000000071 ) ) ;
#36 = VERTEX_POINT ( 'NONE', #4 ) ;
#37 = CLOSED_SHELL ( 'NONE', ( #131, #136, #67, #89, #58 ) ) ;
#38 = EDGE_LOOP ( 'NONE', ( #179 ) ) ;
#39 = PERSON_AND_ORGANIZATION_ROLE ( 'creator' ) ;
#40 = EDGE_LOOP ( 'NONE', ( #57 ) ) ;
#41 = CALENDAR_DATE ( 2021, 8, 10 ) ;
#42 = EDGE_LOOP ( 'NONE', ( #129 ) ) ;
#43 = PRODUCT_RELATED_PRODUCT_CATEGORY ( 'detail', '', ( #214 ) ) ;
#44 = DIRECTION ( 'NONE',  ( -3.491481338843133355E-15, 1.224646799147353207E-16, -1.000000000000000000 ) ) ;
#45 = PLANE ( 'NONE',  #139 ) ;
#46 = DIRECTION ( 'NONE',  ( 0.0000000000000000000, 1.000000000000000000, 0.0000000000000000000 ) ) ;
#47 = DIRECTION ( 'NONE',  ( -4.275831445896958607E-31, -1.000000000000000000, -1.224646799147353207E-16 ) ) ;
#48 = CIRCLE ( 'NONE', #206, 0.7500000000000000000 ) ;
#49 = APPROVAL ( #181, 'UNSPECIFIED' ) ;
#50 = EDGE_CURVE ( 'NONE', #51, #51, #122, .T. ) ;
#51 = VERTEX_POINT ( 'NONE', #126 ) ;
#52 = EDGE_LOOP ( 'NONE', ( #54 ) ) ;
#53 = MECHANICAL_CONTEXT ( 'NONE', #112, 'mechanical' ) ;
#54 = ORIENTED_EDGE ( 'NONE', *, *, #50, .F. ) ;
#55 = PERSON_AND_ORGANIZATION ( #203, #63 ) ;
#56 = DATE_AND_TIME ( #114, #128 ) ;
#57 = ORIENTED_EDGE ( 'NONE', *, *, #50, .T. ) ;
#58 = ADVANCED_FACE ( 'NONE', ( #141 ), #159, .F. ) ;
#59 = DIRECTION ( 'NONE',  ( -3.491481338843133355E-15, 1.224646799147353207E-16, -1.000000000000000000 ) ) ;
#60 = DATE_TIME_ROLE ( 'classification_date' ) ;
#61 = DIRECTION ( 'NONE',  ( -3.491481338843133355E-15, 1.224646799147353207E-16, -1.000000000000000000 ) ) ;
#62 = CARTESIAN_POINT ( 'NONE',  ( 0.0000000000000000000, 0.0000000000000000000, 0.0000000000000000000 ) ) ;
#63 = ORGANIZATION ( 'UNSPECIFIED', 'UNSPECIFIED', '' ) ;
#64 = DIRECTION ( 'NONE',  ( -3.491481338843133355E-15, 1.224646799147353207E-16, -1.000000000000000000 ) ) ;
#65 = EDGE_CURVE ( 'NONE', #21, #21, #48, .T. ) ;
#66 = EDGE_CURVE ( 'NONE', #108, #108, #123, .T. ) ;
#67 = ADVANCED_FACE ( 'NONE', ( #223, #17 ), #140, .T. ) ;
#68 = ADVANCED_BREP_SHAPE_REPRESENTATION ( '958024', ( #148, #69, #85 ), #165 ) ;
#69 = MANIFOLD_SOLID_BREP ( 'Corps-Déplacer/Copier1[2]', #100 ) ;
#70 = CIRCLE ( 'NONE', #5, 0.5699999999999999512 ) ;
#71 = CARTESIAN_POINT ( 'NONE',  ( 1.149010383785444741E-15, -4.030185907154684881E-17, 0.3290896534380898242 ) ) ;
#72 = CC_DESIGN_DATE_AND_TIME_ASSIGNMENT ( #56, #169, ( #7 ) ) ;
#73 = LOCAL_TIME ( 10, 13, 15.00000000000000000, #133 ) ;
#74 = ORIENTED_EDGE ( 'NONE', *, *, #66, .F. ) ;
#75 = APPLICATION_PROTOCOL_DEFINITION ( 'international standard', 'config_control_design', 1994, #125 ) ;
#76 = PERSON_AND_ORGANIZATION ( #203, #63 ) ;
#77 = ADVANCED_FACE ( 'NONE', ( #96, #79 ), #158, .T. ) ;
#78 = SECURITY_CLASSIFICATION_LEVEL ( 'unclassified' ) ;
#79 = FACE_OUTER_BOUND ( 'NONE', #117, .T. ) ;
#80 = DATE_AND_TIME ( #41, #33 ) ;
#81 = CARTESIAN_POINT ( 'NONE',  ( 3.142333204958820020E-14, -1.102182119232617714E-15, 9.000000000000000000 ) ) ;
#82 = DATE_AND_TIME ( #149, #27 ) ;
#83 = CARTESIAN_POINT ( 'NONE',  ( 3.142333204958820020E-14, 4.274315380586278171E-33, 9.000000000000000000 ) ) ;
#84 = DIRECTION ( 'NONE',  ( 3.491481338843133355E-15, -1.224646799147353207E-16, 1.000000000000000000 ) ) ;
#85 = AXIS2_PLACEMENT_3D ( 'NONE', #109, #177, #90 ) ;
#86 = FACE_BOUND ( 'NONE', #52, .T. ) ;
#87 = PRODUCT_DEFINITION_SHAPE ( 'NONE', 'NONE',  #7 ) ;
#88 = CARTESIAN_POINT ( 'NONE',  ( 1.047444401652940007E-13, 0.5499999999999963807, 30.00000000000000000 ) ) ;
#89 = ADVANCED_FACE ( 'NONE', ( #152, #221 ), #91, .T. ) ;
#90 = DIRECTION ( 'NONE',  ( 1.000000000000000000, 0.0000000000000000000, 0.0000000000000000000 ) ) ;
#91 = CONICAL_SURFACE ( 'NONE', #144, 0.5500000000000000444, 0.7853981633974512766 ) ;
#92 = CARTESIAN_POINT ( 'NONE',  ( 1.149010383785444939E-15, 0.5699999999999988409, 0.3290896534380898797 ) ) ;
#93 = CALENDAR_DATE ( 2021, 8, 10 ) ;
#94 = EDGE_LOOP ( 'NONE', ( #111 ) ) ;
#95 = DATE_AND_TIME ( #116, #222 ) ;
#96 = FACE_OUTER_BOUND ( 'NONE', #26, .T. ) ;
#97 = COORDINATED_UNIVERSAL_TIME_OFFSET ( 1, 0, .AHEAD. ) ;
#98 = SECURITY_CLASSIFICATION ( '', '', #78 ) ;
#99 = DIRECTION ( 'NONE',  ( -3.491481338843133355E-15, 1.224646799147353207E-16, -1.000000000000000000 ) ) ;
#100 = CLOSED_SHELL ( 'NONE', ( #176, #77, #25 ) ) ;
#101 = PERSON_AND_ORGANIZATION ( #203, #63 ) ;
#102 = DIRECTION ( 'NONE',  ( 3.491481338843133355E-15, -1.224646799147353207E-16, 1.000000000000000000 ) ) ;
#103 = APPROVAL ( #166, 'UNSPECIFIED' ) ;
#104 = AXIS2_PLACEMENT_3D ( 'NONE', #6, #130, #190 ) ;
#105 = EDGE_CURVE ( 'NONE', #36, #36, #70, .T. ) ;
#106 = CC_DESIGN_SECURITY_CLASSIFICATION ( #98, ( #211 ) ) ;
#107 = FACE_OUTER_BOUND ( 'NONE', #38, .T. ) ;
#108 = VERTEX_POINT ( 'NONE', #161 ) ;
#109 = CARTESIAN_POINT ( 'NONE',  ( 0.0000000000000000000, 0.0000000000000000000, 0.0000000000000000000 ) ) ;
#110 = PERSON_AND_ORGANIZATION ( #203, #63 ) ;
#111 = ORIENTED_EDGE ( 'NONE', *, *, #65, .T. ) ;
#112 = APPLICATION_CONTEXT ( 'configuration controlled 3d designs of mechanical parts and assemblies' ) ;
#113 = CIRCLE ( 'NONE', #104, 0.5699999999999988409 ) ;
#114 = CALENDAR_DATE ( 2021, 8, 10 ) ;
#115 = ORIENTED_EDGE ( 'NONE', *, *, #105, .T. ) ;
#116 = CALENDAR_DATE ( 2021, 8, 10 ) ;
#117 = EDGE_LOOP ( 'NONE', ( #115 ) ) ;
#118 = DIRECTION ( 'NONE',  ( -3.491481338843133355E-15, 1.224646799147353207E-16, -1.000000000000000000 ) ) ;
#119 = APPROVAL_ROLE ( '' ) ;
#120 = DIRECTION ( 'NONE',  ( 0.0000000000000000000, 1.000000000000000000, 0.0000000000000000000 ) ) ;
#121 = CARTESIAN_POINT ( 'NONE',  ( 1.040461438975253740E-13, -3.649447461459112464E-15, 29.80000000000000071 ) ) ;
#122 = CIRCLE ( 'NONE', #151, 0.5699999999999999512 ) ;
#123 = CIRCLE ( 'NONE', #156, 0.7499999999999975575 ) ;
#124 = CC_DESIGN_APPROVAL ( #49, ( #7 ) ) ;
#125 = APPLICATION_CONTEXT ( 'configuration controlled 3d designs of mechanical parts and assemblies' ) ;
#126 = CARTESIAN_POINT ( 'NONE',  ( 3.142333204958820020E-14, 0.5699999999999988409, 9.000000000000000000 ) ) ;
#127 = EDGE_LOOP ( 'NONE', ( #162 ) ) ;
#128 = LOCAL_TIME ( 10, 13, 15.00000000000000000, #167 ) ;
#129 = ORIENTED_EDGE ( 'NONE', *, *, #32, .F. ) ;
#130 = DIRECTION ( 'NONE',  ( -3.491481338843133355E-15, 1.224646799147353207E-16, -1.000000000000000000 ) ) ;
#131 = ADVANCED_FACE ( 'NONE', ( #138 ), #45, .F. ) ;
#132 = APPROVAL_PERSON_ORGANIZATION ( #55, #49, #196 ) ;
#133 = COORDINATED_UNIVERSAL_TIME_OFFSET ( 1, 0, .AHEAD. ) ;
#134 = ORIENTED_EDGE ( 'NONE', *, *, #175, .F. ) ;
#135 = DIRECTION ( 'NONE',  ( 0.0000000000000000000, 1.000000000000000000, 0.0000000000000000000 ) ) ;
#136 = ADVANCED_FACE ( 'NONE', ( #86, #107 ), #189, .T. ) ;
#137 = DATE_AND_TIME ( #93, #73 ) ;
#138 = FACE_OUTER_BOUND ( 'NONE', #40, .T. ) ;
#139 = AXIS2_PLACEMENT_3D ( 'NONE', #187, #102, #146 ) ;
#140 = CYLINDRICAL_SURFACE ( 'NONE', #24, 0.7499999999999986677 ) ;
#141 = FACE_OUTER_BOUND ( 'NONE', #42, .T. ) ;
#142 = UNCERTAINTY_MEASURE_WITH_UNIT (LENGTH_MEASURE( 1.000000000000000082E-05 ), #208, 'distance_accuracy_value', 'NONE');
#143 = CC_DESIGN_PERSON_AND_ORGANIZATION_ASSIGNMENT ( #110, #9, ( #214 ) ) ;
#144 = AXIS2_PLACEMENT_3D ( 'NONE', #217, #118, #184 ) ;
#145 = DIRECTION ( 'NONE',  ( 3.491481338843133355E-15, -1.224646799147353207E-16, 1.000000000000000000 ) ) ;
#146 = DIRECTION ( 'NONE',  ( -4.275831445896958607E-31, -1.000000000000000000, -1.224646799147353207E-16 ) ) ;
#147 = EDGE_LOOP ( 'NONE', ( #191 ) ) ;
#148 = MANIFOLD_SOLID_BREP ( 'Corps-Déplacer/Copier1[1]', #37 ) ;
#149 = CALENDAR_DATE ( 2021, 8, 10 ) ;
#150 = ORIENTED_EDGE ( 'NONE', *, *, #105, .F. ) ;
#151 = AXIS2_PLACEMENT_3D ( 'NONE', #12, #204, #46 ) ;
#152 = FACE_OUTER_BOUND ( 'NONE', #147, .T. ) ;
#153 = CC_DESIGN_PERSON_AND_ORGANIZATION_ASSIGNMENT ( #218, #200, ( #98 ) ) ;
#154 = PERSON_AND_ORGANIZATION_ROLE ( 'creator' ) ;
#155 = FACE_OUTER_BOUND ( 'NONE', #183, .T. ) ;
#156 = AXIS2_PLACEMENT_3D ( 'NONE', #199, #44, #14 ) ;
#157 = APPROVAL_DATE_TIME ( #137, #103 ) ;
#158 = CYLINDRICAL_SURFACE ( 'NONE', #207, 0.5699999999999993960 ) ;
#159 = PLANE ( 'NONE',  #19 ) ;
#160 = CC_DESIGN_DATE_AND_TIME_ASSIGNMENT ( #80, #60, ( #98 ) ) ;
#161 = CARTESIAN_POINT ( 'NONE',  ( 3.251186820264807651E-14, 0.7499999999999963363, 9.311769145362395861 ) ) ;
#162 = ORIENTED_EDGE ( 'NONE', *, *, #175, .T. ) ;
#163 = CARTESIAN_POINT ( 'NONE',  ( 3.251186820264807651E-14, -1.140362827826714376E-15, 9.311769145362395861 ) ) ;
#164 = APPLICATION_PROTOCOL_DEFINITION ( 'international standard', 'config_control_design', 1994, #112 ) ;
#165 =( GEOMETRIC_REPRESENTATION_CONTEXT ( 3 ) GLOBAL_UNCERTAINTY_ASSIGNED_CONTEXT ( ( #142 ) ) GLOBAL_UNIT_ASSIGNED_CONTEXT ( ( #208, #194, #210 ) ) REPRESENTATION_CONTEXT ( 'NONE', 'WORKASPACE' ) );
#166 = APPROVAL_STATUS ( 'not_yet_approved' ) ;
#167 = COORDINATED_UNIVERSAL_TIME_OFFSET ( 1, 0, .AHEAD. ) ;
#168 = CARTESIAN_POINT ( 'NONE',  ( 1.047444401652940007E-13, 4.124339402320052999E-33, 30.00000000000000000 ) ) ;
#169 = DATE_TIME_ROLE ( 'creation_date' ) ;
#170 = CARTESIAN_POINT ( 'NONE',  ( 1.047444401652940007E-13, -3.673940397442059178E-15, 30.00000000000000000 ) ) ;
#171 = AXIS2_PLACEMENT_3D ( 'NONE', #83, #84, #47 ) ;
#172 = APPROVAL_STATUS ( 'not_yet_approved' ) ;
#173 = DIRECTION ( 'NONE',  ( -3.491481338843133355E-15, 1.224646799147353207E-16, -1.000000000000000000 ) ) ;
#174 = DIRECTION ( 'NONE',  ( 4.275831445896958607E-31, 1.000000000000000000, 1.224646799147353207E-16 ) ) ;
#175 = EDGE_CURVE ( 'NONE', #212, #212, #113, .T. ) ;
#176 = ADVANCED_FACE ( 'NONE', ( #178 ), #18, .T. ) ;
#177 = DIRECTION ( 'NONE',  ( 0.0000000000000000000, 0.0000000000000000000, 1.000000000000000000 ) ) ;
#178 = FACE_OUTER_BOUND ( 'NONE', #127, .T. ) ;
#179 = ORIENTED_EDGE ( 'NONE', *, *, #66, .T. ) ;
#180 = AXIS2_PLACEMENT_3D ( 'NONE', #71, #145, #20 ) ;
#181 = APPROVAL_STATUS ( 'not_yet_approved' ) ;
#182 = PERSON_AND_ORGANIZATION ( #203, #63 ) ;
#183 = EDGE_LOOP ( 'NONE', ( #150 ) ) ;
#184 = DIRECTION ( 'NONE',  ( 0.0000000000000000000, 1.000000000000000000, 0.0000000000000000000 ) ) ;
#185 = APPROVAL_PERSON_ORGANIZATION ( #182, #103, #11 ) ;
#186 = APPROVAL_DATE_TIME ( #95, #49 ) ;
#187 = CARTESIAN_POINT ( 'NONE',  ( 3.142333204958820020E-14, 4.274315380586278171E-33, 9.000000000000000000 ) ) ;
#188 = CARTESIAN_POINT ( 'NONE',  ( 0.0000000000000000000, 0.0000000000000000000, 0.0000000000000000000 ) ) ;
#189 = CONICAL_SURFACE ( 'NONE', #34, 0.7499999999999975575, 0.5235987755982937086 ) ;
#190 = DIRECTION ( 'NONE',  ( 3.378824463837262582E-31, 1.000000000000000000, 9.510545372679882313E-17 ) ) ;
#191 = ORIENTED_EDGE ( 'NONE', *, *, #65, .F. ) ;
#192 = CC_DESIGN_APPROVAL ( #193, ( #98 ) ) ;
#193 = APPROVAL ( #172, 'UNSPECIFIED' ) ;
#194 =( NAMED_UNIT ( * ) PLANE_ANGLE_UNIT ( ) SI_UNIT ( $, .RADIAN. ) );
#195 = DIRECTION ( 'NONE',  ( 0.0000000000000000000, -1.000000000000000000, 0.0000000000000000000 ) ) ;
#196 = APPROVAL_ROLE ( '' ) ;
#197 = SHAPE_DEFINITION_REPRESENTATION ( #87, #68 ) ;
#198 = EDGE_LOOP ( 'NONE', ( #213 ) ) ;
#199 = CARTESIAN_POINT ( 'NONE',  ( 3.251186820264807651E-14, -1.140362827826714376E-15, 9.311769145362395861 ) ) ;
#200 = PERSON_AND_ORGANIZATION_ROLE ( 'classification_officer' ) ;
#201 = DIRECTION ( 'NONE',  ( -3.491481338843133355E-15, 1.224646799147353207E-16, -1.000000000000000000 ) ) ;
#202 = CC_DESIGN_APPROVAL ( #103, ( #211 ) ) ;
#203 = PERSON ( 'UNSPECIFIED', 'UNSPECIFIED', 'UNSPECIFIED', ('UNSPECIFIED'), ('UNSPECIFIED'), ('UNSPECIFIED') ) ;
#204 = DIRECTION ( 'NONE',  ( -3.491481338843133355E-15, 1.224646799147353207E-16, -1.000000000000000000 ) ) ;
#205 = PLANE ( 'NONE',  #171 ) ;
#206 = AXIS2_PLACEMENT_3D ( 'NONE', #121, #64, #219 ) ;
#207 = AXIS2_PLACEMENT_3D ( 'NONE', #188, #201, #30 ) ;
#208 =( LENGTH_UNIT ( ) NAMED_UNIT ( * ) SI_UNIT ( .MILLI., .METRE. ) );
#209 = CC_DESIGN_PERSON_AND_ORGANIZATION_ASSIGNMENT ( #13, #154, ( #7 ) ) ;
#210 =( NAMED_UNIT ( * ) SI_UNIT ( $, .STERADIAN. ) SOLID_ANGLE_UNIT ( ) );
#211 = PRODUCT_DEFINITION_FORMATION_WITH_SPECIFIED_SOURCE ( 'ANY', '', #214, .NOT_KNOWN. ) ;
#212 = VERTEX_POINT ( 'NONE', #92 ) ;
#213 = ORIENTED_EDGE ( 'NONE', *, *, #32, .T. ) ;
#214 = PRODUCT ( '958024', '958024', '', ( #53 ) ) ;
#215 = APPROVAL_DATE_TIME ( #82, #193 ) ;
#216 = EDGE_LOOP ( 'NONE', ( #74 ) ) ;
#217 = CARTESIAN_POINT ( 'NONE',  ( 1.047444401652940007E-13, -3.673940397442059178E-15, 30.00000000000000000 ) ) ;
#218 = PERSON_AND_ORGANIZATION ( #203, #63 ) ;
#219 = DIRECTION ( 'NONE',  ( 0.0000000000000000000, 1.000000000000000000, 0.0000000000000000000 ) ) ;
#220 = CC_DESIGN_PERSON_AND_ORGANIZATION_ASSIGNMENT ( #101, #23, ( #211 ) ) ;
#221 = FACE_BOUND ( 'NONE', #198, .T. ) ;
#222 = LOCAL_TIME ( 10, 13, 15.00000000000000000, #97 ) ;
#223 = FACE_OUTER_BOUND ( 'NONE', #216, .T. ) ;
ENDSEC;
END-ISO-10303-21;
