ISO-10303-21;
HEADER;
FILE_DESCRIPTION (( 'STEP AP203' ),
    '1' );
FILE_NAME ('958023.step',
    '2021-10-08T05:54:18',
    ( '' ),
    ( '' ),
    'SwSTEP 2.0',
    'SolidWorks 2019',
    '' );
FILE_SCHEMA (( 'CONFIG_CONTROL_DESIGN' ));
ENDSEC;

DATA;
#1 = PERSON_AND_ORGANIZATION ( #82, #55 ) ;
#2 = CALENDAR_DATE ( 2021, 8, 10 ) ;
#3 = APPROVAL_STATUS ( 'not_yet_approved' ) ;
#4 = APPLICATION_PROTOCOL_DEFINITION ( 'international standard', 'config_control_design', 1994, #193 ) ;
#5 = ORIENTED_EDGE ( 'NONE', *, *, #172, .T. ) ;
#6 = ADVANCED_FACE ( 'NONE', ( #212 ), #38, .T. ) ;
#7 = DIRECTION ( 'NONE',  ( 4.275831445896958607E-31, 1.000000000000000000, 1.224646799147353207E-16 ) ) ;
#8 = EDGE_LOOP ( 'NONE', ( #130 ) ) ;
#9 = ORIENTED_EDGE ( 'NONE', *, *, #152, .T. ) ;
#10 = EDGE_CURVE ( 'NONE', #186, #186, #61, .T. ) ;
#11 = CYLINDRICAL_SURFACE ( 'NONE', #114, 0.7499999999999987788 ) ;
#12 = DIRECTION ( 'NONE',  ( 0.0000000000000000000, 1.000000000000000000, 0.0000000000000000000 ) ) ;
#13 = CONICAL_SURFACE ( 'NONE', #17, 0.5500000000000000444, 0.7853981633974516097 ) ;
#14 = DIRECTION ( 'NONE',  ( -3.491481338843133355E-15, 1.224646799147353207E-16, -1.000000000000000000 ) ) ;
#15 = DIRECTION ( 'NONE',  ( -3.491481338843133355E-15, 1.224646799147353207E-16, -1.000000000000000000 ) ) ;
#16 = DIRECTION ( 'NONE',  ( -3.491481338843133355E-15, 1.224646799147353207E-16, -1.000000000000000000 ) ) ;
#17 = AXIS2_PLACEMENT_3D ( 'NONE', #153, #171, #36 ) ;
#18 = COORDINATED_UNIVERSAL_TIME_OFFSET ( 1, 0, .AHEAD. ) ;
#19 = APPROVAL ( #3, 'UNSPECIFIED' ) ;
#20 = PERSON_AND_ORGANIZATION ( #82, #55 ) ;
#21 = LOCAL_TIME ( 7, 54, 18.00000000000000000, #92 ) ;
#22 = PERSON_AND_ORGANIZATION ( #82, #55 ) ;
#23 = PRODUCT ( '958023', '958023', '', ( #122 ) ) ;
#24 = ADVANCED_FACE ( 'NONE', ( #46 ), #182, .F. ) ;
#25 = DATE_AND_TIME ( #110, #21 ) ;
#26 = DESIGN_CONTEXT ( 'detailed design', #96, 'design' ) ;
#27 = EDGE_LOOP ( 'NONE', ( #44 ) ) ;
#28 = ORIENTED_EDGE ( 'NONE', *, *, #10, .T. ) ;
#29 = CLOSED_SHELL ( 'NONE', ( #6, #196, #103 ) ) ;
#30 = EDGE_LOOP ( 'NONE', ( #9 ) ) ;
#31 = CC_DESIGN_APPROVAL ( #74, ( #142 ) ) ;
#32 = DIRECTION ( 'NONE',  ( -4.275831445896958607E-31, -1.000000000000000000, -1.224646799147353207E-16 ) ) ;
#33 = DIRECTION ( 'NONE',  ( -3.491481338843133355E-15, 1.224646799147353207E-16, -1.000000000000000000 ) ) ;
#34 = CC_DESIGN_DATE_AND_TIME_ASSIGNMENT ( #58, #158, ( #142 ) ) ;
#35 = CARTESIAN_POINT ( 'NONE',  ( 1.047444401652940007E-13, -3.673940397442059178E-15, 30.00000000000000000 ) ) ;
#36 = DIRECTION ( 'NONE',  ( 0.0000000000000000000, 1.000000000000000000, 0.0000000000000000000 ) ) ;
#37 = APPROVAL_ROLE ( '' ) ;
#38 = CONICAL_SURFACE ( 'NONE', #199, 0.5699999999999988409, 1.047197551196592746 ) ;
#39 = PERSON_AND_ORGANIZATION_ROLE ( 'design_supplier' ) ;
#40 = PERSON_AND_ORGANIZATION ( #82, #55 ) ;
#41 = CC_DESIGN_PERSON_AND_ORGANIZATION_ASSIGNMENT ( #22, #39, ( #80 ) ) ;
#42 = CIRCLE ( 'NONE', #162, 0.7499999999999975575 ) ;
#43 = APPROVAL_STATUS ( 'not_yet_approved' ) ;
#44 = ORIENTED_EDGE ( 'NONE', *, *, #152, .F. ) ;
#45 = CC_DESIGN_PERSON_AND_ORGANIZATION_ASSIGNMENT ( #40, #72, ( #23 ) ) ;
#46 = FACE_OUTER_BOUND ( 'NONE', #65, .T. ) ;
#47 = CC_DESIGN_PERSON_AND_ORGANIZATION_ASSIGNMENT ( #197, #73, ( #142 ) ) ;
#48 = CARTESIAN_POINT ( 'NONE',  ( 1.149010383785444741E-15, -4.030185907154684881E-17, 0.3290896534380898242 ) ) ;
#49 = AXIS2_PLACEMENT_3D ( 'NONE', #118, #50, #32 ) ;
#50 = DIRECTION ( 'NONE',  ( 3.491481338843133355E-15, -1.224646799147353207E-16, 1.000000000000000000 ) ) ;
#51 = ADVANCED_FACE ( 'NONE', ( #147, #136 ), #11, .T. ) ;
#52 = DIRECTION ( 'NONE',  ( 0.0000000000000000000, -1.000000000000000000, 0.0000000000000000000 ) ) ;
#53 = MANIFOLD_SOLID_BREP ( 'Corps-Déplacer/Copier1[2]', #29 ) ;
#54 = CARTESIAN_POINT ( 'NONE',  ( 1.040461438975253740E-13, 0.7499999999999964473, 29.80000000000000071 ) ) ;
#55 = ORGANIZATION ( 'UNSPECIFIED', 'UNSPECIFIED', '' ) ;
#56 = FACE_OUTER_BOUND ( 'NONE', #27, .T. ) ;
#57 = FACE_OUTER_BOUND ( 'NONE', #99, .T. ) ;
#58 = DATE_AND_TIME ( #2, #148 ) ;
#59 = PERSON_AND_ORGANIZATION ( #82, #55 ) ;
#60 = APPROVAL_ROLE ( '' ) ;
#61 = CIRCLE ( 'NONE', #191, 0.5699999999999988409 ) ;
#62 = APPROVAL_PERSON_ORGANIZATION ( #59, #216, #60 ) ;
#63 = ADVANCED_FACE ( 'NONE', ( #194 ), #215, .F. ) ;
#64 = DIRECTION ( 'NONE',  ( 3.491481338843133355E-15, -1.224646799147353207E-16, 1.000000000000000000 ) ) ;
#65 = EDGE_LOOP ( 'NONE', ( #116 ) ) ;
#66 = CARTESIAN_POINT ( 'NONE',  ( 1.149010383785444741E-15, -4.030185907154684881E-17, 0.3290896534380898242 ) ) ;
#67 = DIRECTION ( 'NONE',  ( 0.0000000000000000000, 1.000000000000000000, 0.0000000000000000000 ) ) ;
#68 = CARTESIAN_POINT ( 'NONE',  ( 3.142333204958820020E-14, 4.274315380586278171E-33, 9.000000000000000000 ) ) ;
#69 = DIRECTION ( 'NONE',  ( 4.275831445896958607E-31, 1.000000000000000000, 1.224646799147353207E-16 ) ) ;
#70 = PRODUCT_RELATED_PRODUCT_CATEGORY ( 'detail', '', ( #23 ) ) ;
#71 =( LENGTH_UNIT ( ) NAMED_UNIT ( * ) SI_UNIT ( .MILLI., .METRE. ) );
#72 = PERSON_AND_ORGANIZATION_ROLE ( 'design_owner' ) ;
#73 = PERSON_AND_ORGANIZATION_ROLE ( 'creator' ) ;
#74 = APPROVAL ( #108, 'UNSPECIFIED' ) ;
#75 = SHAPE_DEFINITION_REPRESENTATION ( #187, #175 ) ;
#76 = CALENDAR_DATE ( 2021, 8, 10 ) ;
#77 = EDGE_LOOP ( 'NONE', ( #78 ) ) ;
#78 = ORIENTED_EDGE ( 'NONE', *, *, #115, .T. ) ;
#79 = ORIENTED_EDGE ( 'NONE', *, *, #132, .F. ) ;
#80 = PRODUCT_DEFINITION_FORMATION_WITH_SPECIFIED_SOURCE ( 'ANY', '', #23, .NOT_KNOWN. ) ;
#81 = ORIENTED_EDGE ( 'NONE', *, *, #132, .T. ) ;
#82 = PERSON ( 'UNSPECIFIED', 'UNSPECIFIED', 'UNSPECIFIED', ('UNSPECIFIED'), ('UNSPECIFIED'), ('UNSPECIFIED') ) ;
#83 = EDGE_LOOP ( 'NONE', ( #166 ) ) ;
#84 =( NAMED_UNIT ( * ) PLANE_ANGLE_UNIT ( ) SI_UNIT ( $, .RADIAN. ) );
#85 = DIRECTION ( 'NONE',  ( -3.491481338843133355E-15, 1.224646799147353207E-16, -1.000000000000000000 ) ) ;
#86 = CONICAL_SURFACE ( 'NONE', #214, 0.7499999999999975575, 0.5235987755982937086 ) ;
#87 = CC_DESIGN_DATE_AND_TIME_ASSIGNMENT ( #143, #209, ( #200 ) ) ;
#88 = DIRECTION ( 'NONE',  ( -3.491481338843133355E-15, 1.224646799147353207E-16, -1.000000000000000000 ) ) ;
#89 = FACE_OUTER_BOUND ( 'NONE', #180, .T. ) ;
#90 = DIRECTION ( 'NONE',  ( 0.0000000000000000000, 1.000000000000000000, 0.0000000000000000000 ) ) ;
#91 = CC_DESIGN_APPROVAL ( #19, ( #80 ) ) ;
#92 = COORDINATED_UNIVERSAL_TIME_OFFSET ( 1, 0, .AHEAD. ) ;
#93 = ADVANCED_FACE ( 'NONE', ( #56, #190 ), #13, .T. ) ;
#94 = AXIS2_PLACEMENT_3D ( 'NONE', #35, #33, #104 ) ;
#95 = COORDINATED_UNIVERSAL_TIME_OFFSET ( 1, 0, .AHEAD. ) ;
#96 = APPLICATION_CONTEXT ( 'configuration controlled 3d designs of mechanical parts and assemblies' ) ;
#97 = CARTESIAN_POINT ( 'NONE',  ( 0.0000000000000000000, 0.0000000000000000000, 0.0000000000000000000 ) ) ;
#98 = CARTESIAN_POINT ( 'NONE',  ( 1.047444401652940007E-13, 4.124339402320052999E-33, 30.00000000000000000 ) ) ;
#99 = EDGE_LOOP ( 'NONE', ( #163 ) ) ;
#100 =( GEOMETRIC_REPRESENTATION_CONTEXT ( 3 ) GLOBAL_UNCERTAINTY_ASSIGNED_CONTEXT ( ( #160 ) ) GLOBAL_UNIT_ASSIGNED_CONTEXT ( ( #71, #84, #125 ) ) REPRESENTATION_CONTEXT ( 'NONE', 'WORKASPACE' ) );
#101 = LOCAL_TIME ( 7, 54, 18.00000000000000000, #157 ) ;
#102 = CARTESIAN_POINT ( 'NONE',  ( 3.251186820264807651E-14, -1.140362827826714376E-15, 9.311769145362395861 ) ) ;
#103 = ADVANCED_FACE ( 'NONE', ( #134 ), #133, .T. ) ;
#104 = DIRECTION ( 'NONE',  ( 0.0000000000000000000, 1.000000000000000000, 0.0000000000000000000 ) ) ;
#105 = DIRECTION ( 'NONE',  ( 0.0000000000000000000, 1.000000000000000000, 0.0000000000000000000 ) ) ;
#106 = FACE_BOUND ( 'NONE', #184, .T. ) ;
#107 = DIRECTION ( 'NONE',  ( -4.275831445896958607E-31, -1.000000000000000000, -1.224646799147353207E-16 ) ) ;
#108 = APPROVAL_STATUS ( 'not_yet_approved' ) ;
#109 = AXIS2_PLACEMENT_3D ( 'NONE', #205, #15, #105 ) ;
#110 = CALENDAR_DATE ( 2021, 8, 10 ) ;
#111 = CC_DESIGN_PERSON_AND_ORGANIZATION_ASSIGNMENT ( #20, #210, ( #200 ) ) ;
#112 = DATE_AND_TIME ( #211, #222 ) ;
#113 = APPROVAL_DATE_TIME ( #25, #74 ) ;
#114 = AXIS2_PLACEMENT_3D ( 'NONE', #223, #85, #138 ) ;
#115 = EDGE_CURVE ( 'NONE', #167, #167, #145, .T. ) ;
#116 = ORIENTED_EDGE ( 'NONE', *, *, #115, .F. ) ;
#117 = CARTESIAN_POINT ( 'NONE',  ( 1.149010383785444939E-15, 0.5699999999999988409, 0.3290896534380898797 ) ) ;
#118 = CARTESIAN_POINT ( 'NONE',  ( 3.142333204958820020E-14, 4.274315380586278171E-33, 9.000000000000000000 ) ) ;
#119 = VERTEX_POINT ( 'NONE', #220 ) ;
#120 = AXIS2_PLACEMENT_3D ( 'NONE', #97, #159, #195 ) ;
#121 = VERTEX_POINT ( 'NONE', #54 ) ;
#122 = MECHANICAL_CONTEXT ( 'NONE', #193, 'mechanical' ) ;
#123 = PERSON_AND_ORGANIZATION ( #82, #55 ) ;
#124 = PERSON_AND_ORGANIZATION_ROLE ( 'creator' ) ;
#125 =( NAMED_UNIT ( * ) SI_UNIT ( $, .STERADIAN. ) SOLID_ANGLE_UNIT ( ) );
#126 = CC_DESIGN_PERSON_AND_ORGANIZATION_ASSIGNMENT ( #123, #124, ( #80 ) ) ;
#127 = AXIS2_PLACEMENT_3D ( 'NONE', #68, #151, #107 ) ;
#128 = CC_DESIGN_SECURITY_CLASSIFICATION ( #200, ( #80 ) ) ;
#129 = DIRECTION ( 'NONE',  ( -3.491481338843133355E-15, 1.224646799147353207E-16, -1.000000000000000000 ) ) ;
#130 = ORIENTED_EDGE ( 'NONE', *, *, #172, .F. ) ;
#131 = DIRECTION ( 'NONE',  ( -3.378824463837262582E-31, -1.000000000000000000, -9.510545372679882313E-17 ) ) ;
#132 = EDGE_CURVE ( 'NONE', #135, #135, #155, .T. ) ;
#133 = PLANE ( 'NONE',  #127 ) ;
#134 = FACE_OUTER_BOUND ( 'NONE', #83, .T. ) ;
#135 = VERTEX_POINT ( 'NONE', #154 ) ;
#136 = FACE_OUTER_BOUND ( 'NONE', #30, .T. ) ;
#137 = AXIS2_PLACEMENT_3D ( 'NONE', #98, #164, #7 ) ;
#138 = DIRECTION ( 'NONE',  ( 4.275831445896959482E-31, 1.000000000000000000, 1.224646799147353207E-16 ) ) ;
#139 = APPLICATION_PROTOCOL_DEFINITION ( 'international standard', 'config_control_design', 1994, #96 ) ;
#140 = AXIS2_PLACEMENT_3D ( 'NONE', #203, #88, #69 ) ;
#141 = APPROVAL_DATE_TIME ( #173, #19 ) ;
#142 = PRODUCT_DEFINITION ( 'UNKNOWN', '', #80, #26 ) ;
#143 = DATE_AND_TIME ( #76, #156 ) ;
#144 = CLOSED_SHELL ( 'NONE', ( #63, #189, #51, #93, #24 ) ) ;
#145 = CIRCLE ( 'NONE', #94, 0.5500000000000000444 ) ;
#146 = EDGE_LOOP ( 'NONE', ( #183 ) ) ;
#147 = FACE_OUTER_BOUND ( 'NONE', #8, .T. ) ;
#148 = LOCAL_TIME ( 7, 54, 18.00000000000000000, #208 ) ;
#149 = EDGE_LOOP ( 'NONE', ( #81 ) ) ;
#150 = AXIS2_PLACEMENT_3D ( 'NONE', #218, #16, #90 ) ;
#151 = DIRECTION ( 'NONE',  ( 3.491481338843133355E-15, -1.224646799147353207E-16, 1.000000000000000000 ) ) ;
#152 = EDGE_CURVE ( 'NONE', #121, #121, #181, .T. ) ;
#153 = CARTESIAN_POINT ( 'NONE',  ( 1.047444401652940007E-13, -3.673940397442059178E-15, 30.00000000000000000 ) ) ;
#154 = CARTESIAN_POINT ( 'NONE',  ( 3.142333204958820020E-14, 0.5699999999999988409, 9.000000000000000000 ) ) ;
#155 = CIRCLE ( 'NONE', #109, 0.5699999999999999512 ) ;
#156 = LOCAL_TIME ( 7, 54, 18.00000000000000000, #18 ) ;
#157 = COORDINATED_UNIVERSAL_TIME_OFFSET ( 1, 0, .AHEAD. ) ;
#158 = DATE_TIME_ROLE ( 'creation_date' ) ;
#159 = DIRECTION ( 'NONE',  ( 0.0000000000000000000, 0.0000000000000000000, 1.000000000000000000 ) ) ;
#160 = UNCERTAINTY_MEASURE_WITH_UNIT (LENGTH_MEASURE( 1.000000000000000082E-05 ), #71, 'distance_accuracy_value', 'NONE');
#161 = SECURITY_CLASSIFICATION_LEVEL ( 'unclassified' ) ;
#162 = AXIS2_PLACEMENT_3D ( 'NONE', #102, #219, #67 ) ;
#163 = ORIENTED_EDGE ( 'NONE', *, *, #179, .T. ) ;
#164 = DIRECTION ( 'NONE',  ( -3.491481338843133355E-15, 1.224646799147353207E-16, -1.000000000000000000 ) ) ;
#165 = AXIS2_PLACEMENT_3D ( 'NONE', #168, #14, #12 ) ;
#166 = ORIENTED_EDGE ( 'NONE', *, *, #179, .F. ) ;
#167 = VERTEX_POINT ( 'NONE', #188 ) ;
#168 = CARTESIAN_POINT ( 'NONE',  ( 1.040461438975253740E-13, -3.649447461459112464E-15, 29.80000000000000071 ) ) ;
#169 = CARTESIAN_POINT ( 'NONE',  ( 3.251186820264807651E-14, -1.140362827826714376E-15, 9.311769145362395861 ) ) ;
#170 = CYLINDRICAL_SURFACE ( 'NONE', #140, 0.5699999999999993960 ) ;
#171 = DIRECTION ( 'NONE',  ( -3.491481338843133355E-15, 1.224646799147353207E-16, -1.000000000000000000 ) ) ;
#172 = EDGE_CURVE ( 'NONE', #119, #119, #42, .T. ) ;
#173 = DATE_AND_TIME ( #174, #101 ) ;
#174 = CALENDAR_DATE ( 2021, 8, 10 ) ;
#175 = ADVANCED_BREP_SHAPE_REPRESENTATION ( '958023', ( #201, #53, #120 ), #100 ) ;
#176 = APPROVAL_DATE_TIME ( #112, #216 ) ;
#177 = APPROVAL_PERSON_ORGANIZATION ( #1, #19, #37 ) ;
#178 = PERSON_AND_ORGANIZATION ( #82, #55 ) ;
#179 = EDGE_CURVE ( 'NONE', #206, #206, #217, .T. ) ;
#180 = EDGE_LOOP ( 'NONE', ( #5 ) ) ;
#181 = CIRCLE ( 'NONE', #165, 0.7500000000000001110 ) ;
#182 = PLANE ( 'NONE',  #137 ) ;
#183 = ORIENTED_EDGE ( 'NONE', *, *, #10, .F. ) ;
#184 = EDGE_LOOP ( 'NONE', ( #79 ) ) ;
#185 = CC_DESIGN_APPROVAL ( #216, ( #200 ) ) ;
#186 = VERTEX_POINT ( 'NONE', #117 ) ;
#187 = PRODUCT_DEFINITION_SHAPE ( 'NONE', 'NONE',  #142 ) ;
#188 = CARTESIAN_POINT ( 'NONE',  ( 1.047444401652940007E-13, 0.5499999999999963807, 30.00000000000000000 ) ) ;
#189 = ADVANCED_FACE ( 'NONE', ( #106, #89 ), #86, .T. ) ;
#190 = FACE_BOUND ( 'NONE', #77, .T. ) ;
#191 = AXIS2_PLACEMENT_3D ( 'NONE', #48, #129, #202 ) ;
#192 = CARTESIAN_POINT ( 'NONE',  ( 3.142333204958820020E-14, 0.5699999999999988409, 9.000000000000000000 ) ) ;
#193 = APPLICATION_CONTEXT ( 'configuration controlled 3d designs of mechanical parts and assemblies' ) ;
#194 = FACE_OUTER_BOUND ( 'NONE', #149, .T. ) ;
#195 = DIRECTION ( 'NONE',  ( 1.000000000000000000, 0.0000000000000000000, 0.0000000000000000000 ) ) ;
#196 = ADVANCED_FACE ( 'NONE', ( #207, #57 ), #170, .T. ) ;
#197 = PERSON_AND_ORGANIZATION ( #82, #55 ) ;
#198 = APPROVAL_ROLE ( '' ) ;
#199 = AXIS2_PLACEMENT_3D ( 'NONE', #66, #64, #131 ) ;
#200 = SECURITY_CLASSIFICATION ( '', '', #161 ) ;
#201 = MANIFOLD_SOLID_BREP ( 'Corps-Déplacer/Copier1[1]', #144 ) ;
#202 = DIRECTION ( 'NONE',  ( 3.378824463837262582E-31, 1.000000000000000000, 9.510545372679882313E-17 ) ) ;
#203 = CARTESIAN_POINT ( 'NONE',  ( 0.0000000000000000000, 0.0000000000000000000, 0.0000000000000000000 ) ) ;
#204 = DIRECTION ( 'NONE',  ( 3.491481338843133355E-15, -1.224646799147353207E-16, 1.000000000000000000 ) ) ;
#205 = CARTESIAN_POINT ( 'NONE',  ( 3.142333204958820020E-14, -1.102182119232617714E-15, 9.000000000000000000 ) ) ;
#206 = VERTEX_POINT ( 'NONE', #192 ) ;
#207 = FACE_OUTER_BOUND ( 'NONE', #146, .T. ) ;
#208 = COORDINATED_UNIVERSAL_TIME_OFFSET ( 1, 0, .AHEAD. ) ;
#209 = DATE_TIME_ROLE ( 'classification_date' ) ;
#210 = PERSON_AND_ORGANIZATION_ROLE ( 'classification_officer' ) ;
#211 = CALENDAR_DATE ( 2021, 8, 10 ) ;
#212 = FACE_OUTER_BOUND ( 'NONE', #213, .T. ) ;
#213 = EDGE_LOOP ( 'NONE', ( #28 ) ) ;
#214 = AXIS2_PLACEMENT_3D ( 'NONE', #169, #204, #52 ) ;
#215 = PLANE ( 'NONE',  #49 ) ;
#216 = APPROVAL ( #43, 'UNSPECIFIED' ) ;
#217 = CIRCLE ( 'NONE', #150, 0.5699999999999999512 ) ;
#218 = CARTESIAN_POINT ( 'NONE',  ( 3.142333204958820020E-14, -1.102182119232617714E-15, 9.000000000000000000 ) ) ;
#219 = DIRECTION ( 'NONE',  ( -3.491481338843133355E-15, 1.224646799147353207E-16, -1.000000000000000000 ) ) ;
#220 = CARTESIAN_POINT ( 'NONE',  ( 3.251186820264807651E-14, 0.7499999999999963363, 9.311769145362395861 ) ) ;
#221 = APPROVAL_PERSON_ORGANIZATION ( #178, #74, #198 ) ;
#222 = LOCAL_TIME ( 7, 54, 18.00000000000000000, #95 ) ;
#223 = CARTESIAN_POINT ( 'NONE',  ( 0.0000000000000000000, 0.0000000000000000000, 0.0000000000000000000 ) ) ;
ENDSEC;
END-ISO-10303-21;
