ISO-10303-21;
HEADER;
FILE_DESCRIPTION (( 'STEP AP203' ),
    '1' );
FILE_NAME ('958021.step',
    '2021-10-08T08:13:15',
    ( '' ),
    ( '' ),
    'SwSTEP 2.0',
    'SolidWorks 2019',
    '' );
FILE_SCHEMA (( 'CONFIG_CONTROL_DESIGN' ));
ENDSEC;

DATA;
#1 = PRODUCT_DEFINITION_SHAPE ( 'NONE', 'NONE',  #110 ) ;
#2 = EDGE_LOOP ( 'NONE', ( #171 ) ) ;
#3 = CC_DESIGN_APPROVAL ( #33, ( #201 ) ) ;
#4 = EDGE_LOOP ( 'NONE', ( #141 ) ) ;
#5 = UNCERTAINTY_MEASURE_WITH_UNIT (LENGTH_MEASURE( 1.000000000000000082E-05 ), #123, 'distance_accuracy_value', 'NONE');
#6 = AXIS2_PLACEMENT_3D ( 'NONE', #7, #173, #39 ) ;
#7 = CARTESIAN_POINT ( 'NONE',  ( 3.266305377946195173E-14, -1.145665704020339005E-15, 9.355070415551619334 ) ) ;
#8 = EDGE_LOOP ( 'NONE', ( #87 ) ) ;
#9 = DIRECTION ( 'NONE',  ( 0.0000000000000000000, 1.000000000000000000, 0.0000000000000000000 ) ) ;
#10 = EDGE_CURVE ( 'NONE', #28, #28, #155, .T. ) ;
#11 = VERTEX_POINT ( 'NONE', #207 ) ;
#12 = CC_DESIGN_PERSON_AND_ORGANIZATION_ASSIGNMENT ( #216, #131, ( #201 ) ) ;
#13 = DIRECTION ( 'NONE',  ( 4.275831445896958607E-31, 1.000000000000000000, 1.224646799147353207E-16 ) ) ;
#14 = APPROVAL_DATE_TIME ( #43, #69 ) ;
#15 = PERSON_AND_ORGANIZATION ( #108, #126 ) ;
#16 = CIRCLE ( 'NONE', #37, 0.5449999999999989297 ) ;
#17 = CARTESIAN_POINT ( 'NONE',  ( 1.098615191514153003E-15, -3.853423367367198464E-17, 0.3146558967083490366 ) ) ;
#18 = PERSON_AND_ORGANIZATION ( #108, #126 ) ;
#19 = DATE_AND_TIME ( #153, #219 ) ;
#20 = LOCAL_TIME ( 10, 13, 15.00000000000000000, #181 ) ;
#21 = DIRECTION ( 'NONE',  ( 1.000000000000000000, 0.0000000000000000000, 0.0000000000000000000 ) ) ;
#22 = ADVANCED_FACE ( 'NONE', ( #60 ), #84, .F. ) ;
#23 = ORIENTED_EDGE ( 'NONE', *, *, #45, .F. ) ;
#24 = CARTESIAN_POINT ( 'NONE',  ( 1.098615191514153003E-15, -3.853423367367198464E-17, 0.3146558967083490366 ) ) ;
#25 = VERTEX_POINT ( 'NONE', #57 ) ;
#26 = DIRECTION ( 'NONE',  ( -3.491481338843133355E-15, 1.224646799147353207E-16, -1.000000000000000000 ) ) ;
#27 = APPROVAL_PERSON_ORGANIZATION ( #15, #69, #114 ) ;
#28 = VERTEX_POINT ( 'NONE', #113 ) ;
#29 = COORDINATED_UNIVERSAL_TIME_OFFSET ( 1, 0, .AHEAD. ) ;
#30 = DATE_AND_TIME ( #95, #20 ) ;
#31 = CC_DESIGN_PERSON_AND_ORGANIZATION_ASSIGNMENT ( #85, #79, ( #110 ) ) ;
#32 = CALENDAR_DATE ( 2021, 8, 10 ) ;
#33 = APPROVAL ( #198, 'UNSPECIFIED' ) ;
#34 = AXIS2_PLACEMENT_3D ( 'NONE', #149, #134, #165 ) ;
#35 = FACE_OUTER_BOUND ( 'NONE', #169, .T. ) ;
#36 = FACE_OUTER_BOUND ( 'NONE', #142, .T. ) ;
#37 = AXIS2_PLACEMENT_3D ( 'NONE', #24, #188, #160 ) ;
#38 = DIRECTION ( 'NONE',  ( -3.491481338843133355E-15, 1.224646799147353207E-16, -1.000000000000000000 ) ) ;
#39 = DIRECTION ( 'NONE',  ( 0.0000000000000000000, -1.000000000000000000, 0.0000000000000000000 ) ) ;
#40 = CC_DESIGN_SECURITY_CLASSIFICATION ( #201, ( #176 ) ) ;
#41 = MECHANICAL_CONTEXT ( 'NONE', #129, 'mechanical' ) ;
#42 = APPROVAL_DATE_TIME ( #19, #33 ) ;
#43 = DATE_AND_TIME ( #44, #211 ) ;
#44 = CALENDAR_DATE ( 2021, 8, 10 ) ;
#45 = EDGE_CURVE ( 'NONE', #210, #210, #203, .T. ) ;
#46 = DIRECTION ( 'NONE',  ( -3.491481338843133355E-15, 1.224646799147353207E-16, -1.000000000000000000 ) ) ;
#47 = DIRECTION ( 'NONE',  ( 0.0000000000000000000, 0.0000000000000000000, 1.000000000000000000 ) ) ;
#48 = PLANE ( 'NONE',  #194 ) ;
#49 = FACE_OUTER_BOUND ( 'NONE', #8, .T. ) ;
#50 = ORIENTED_EDGE ( 'NONE', *, *, #185, .T. ) ;
#51 = AXIS2_PLACEMENT_3D ( 'NONE', #146, #47, #21 ) ;
#52 = CC_DESIGN_PERSON_AND_ORGANIZATION_ASSIGNMENT ( #135, #168, ( #176 ) ) ;
#53 = ORIENTED_EDGE ( 'NONE', *, *, #166, .F. ) ;
#54 = ORIENTED_EDGE ( 'NONE', *, *, #170, .F. ) ;
#55 = DIRECTION ( 'NONE',  ( -4.275831445896958607E-31, -1.000000000000000000, -1.224646799147353207E-16 ) ) ;
#56 = MANIFOLD_SOLID_BREP ( 'Corps-Déplacer/Copier1[2]', #183 ) ;
#57 = CARTESIAN_POINT ( 'NONE',  ( 3.142333204958820651E-14, 0.5449999999999994849, 9.000000000000001776 ) ) ;
#58 = EDGE_LOOP ( 'NONE', ( #53 ) ) ;
#59 = CARTESIAN_POINT ( 'NONE',  ( 1.098615191514153200E-15, 0.5449999999999989297, 0.3146558967083490921 ) ) ;
#60 = FACE_OUTER_BOUND ( 'NONE', #72, .T. ) ;
#61 =( NAMED_UNIT ( * ) SI_UNIT ( $, .STERADIAN. ) SOLID_ANGLE_UNIT ( ) );
#62 = CYLINDRICAL_SURFACE ( 'NONE', #189, 0.5449999999999997069 ) ;
#63 = PERSON_AND_ORGANIZATION ( #108, #126 ) ;
#64 = CIRCLE ( 'NONE', #99, 0.7500000000000000000 ) ;
#65 = DIRECTION ( 'NONE',  ( -4.275831445896958607E-31, -1.000000000000000000, -1.224646799147353207E-16 ) ) ;
#66 = DIRECTION ( 'NONE',  ( 0.0000000000000000000, 1.000000000000000000, 0.0000000000000000000 ) ) ;
#67 = DIRECTION ( 'NONE',  ( -3.533816411719705735E-31, -1.000000000000000000, -9.946808921885381264E-17 ) ) ;
#68 = ORIENTED_EDGE ( 'NONE', *, *, #222, .T. ) ;
#69 = APPROVAL ( #82, 'UNSPECIFIED' ) ;
#70 = LOCAL_TIME ( 10, 13, 15.00000000000000000, #80 ) ;
#71 = EDGE_LOOP ( 'NONE', ( #205 ) ) ;
#72 = EDGE_LOOP ( 'NONE', ( #68 ) ) ;
#73 = CYLINDRICAL_SURFACE ( 'NONE', #200, 0.7499999999999986677 ) ;
#74 = EDGE_LOOP ( 'NONE', ( #54 ) ) ;
#75 = FACE_OUTER_BOUND ( 'NONE', #71, .T. ) ;
#76 =( NAMED_UNIT ( * ) PLANE_ANGLE_UNIT ( ) SI_UNIT ( $, .RADIAN. ) );
#77 = ADVANCED_FACE ( 'NONE', ( #137, #221 ), #91, .T. ) ;
#78 = APPLICATION_PROTOCOL_DEFINITION ( 'international standard', 'config_control_design', 1994, #129 ) ;
#79 = PERSON_AND_ORGANIZATION_ROLE ( 'creator' ) ;
#80 = COORDINATED_UNIVERSAL_TIME_OFFSET ( 1, 0, .AHEAD. ) ;
#81 = CONICAL_SURFACE ( 'NONE', #6, 0.7499999999999975575, 0.5235987755982944858 ) ;
#82 = APPROVAL_STATUS ( 'not_yet_approved' ) ;
#83 =( GEOMETRIC_REPRESENTATION_CONTEXT ( 3 ) GLOBAL_UNCERTAINTY_ASSIGNED_CONTEXT ( ( #5 ) ) GLOBAL_UNIT_ASSIGNED_CONTEXT ( ( #123, #76, #61 ) ) REPRESENTATION_CONTEXT ( 'NONE', 'WORKASPACE' ) );
#84 = PLANE ( 'NONE',  #178 ) ;
#85 = PERSON_AND_ORGANIZATION ( #108, #126 ) ;
#86 = FACE_OUTER_BOUND ( 'NONE', #96, .T. ) ;
#87 = ORIENTED_EDGE ( 'NONE', *, *, #185, .F. ) ;
#88 = ADVANCED_FACE ( 'NONE', ( #86 ), #147, .T. ) ;
#89 = CLOSED_SHELL ( 'NONE', ( #22, #191, #156, #77, #118 ) ) ;
#90 = CARTESIAN_POINT ( 'NONE',  ( 3.142333204958820651E-14, -2.083555098183231510E-31, 9.000000000000001776 ) ) ;
#91 = CONICAL_SURFACE ( 'NONE', #34, 0.5500000000000000444, 0.7853981633974512766 ) ;
#92 = CARTESIAN_POINT ( 'NONE',  ( 3.142333204958820651E-14, -1.102182119232617911E-15, 9.000000000000001776 ) ) ;
#93 = DIRECTION ( 'NONE',  ( -3.491481338843133355E-15, 1.224646799147353207E-16, -1.000000000000000000 ) ) ;
#94 = APPROVAL ( #97, 'UNSPECIFIED' ) ;
#95 = CALENDAR_DATE ( 2021, 8, 10 ) ;
#96 = EDGE_LOOP ( 'NONE', ( #186 ) ) ;
#97 = APPROVAL_STATUS ( 'not_yet_approved' ) ;
#98 = APPLICATION_PROTOCOL_DEFINITION ( 'international standard', 'config_control_design', 1994, #154 ) ;
#99 = AXIS2_PLACEMENT_3D ( 'NONE', #175, #26, #9 ) ;
#100 = DIRECTION ( 'NONE',  ( 3.491481338843133355E-15, -1.224646799147353207E-16, 1.000000000000000000 ) ) ;
#101 = COORDINATED_UNIVERSAL_TIME_OFFSET ( 1, 0, .AHEAD. ) ;
#102 = LOCAL_TIME ( 10, 13, 15.00000000000000000, #179 ) ;
#103 = PRODUCT ( '958021', '958021', '', ( #41 ) ) ;
#104 = CC_DESIGN_PERSON_AND_ORGANIZATION_ASSIGNMENT ( #63, #197, ( #176 ) ) ;
#105 = ORIENTED_EDGE ( 'NONE', *, *, #10, .T. ) ;
#106 = PLANE ( 'NONE',  #130 ) ;
#107 = FACE_BOUND ( 'NONE', #2, .T. ) ;
#108 = PERSON ( 'UNSPECIFIED', 'UNSPECIFIED', 'UNSPECIFIED', ('UNSPECIFIED'), ('UNSPECIFIED'), ('UNSPECIFIED') ) ;
#109 = DIRECTION ( 'NONE',  ( 4.275831445896958607E-31, 1.000000000000000000, 1.224646799147353207E-16 ) ) ;
#110 = PRODUCT_DEFINITION ( 'UNKNOWN', '', #176, #187 ) ;
#111 = APPROVAL_PERSON_ORGANIZATION ( #115, #94, #164 ) ;
#112 = CARTESIAN_POINT ( 'NONE',  ( 0.0000000000000000000, 0.0000000000000000000, 0.0000000000000000000 ) ) ;
#113 = CARTESIAN_POINT ( 'NONE',  ( 3.142333204958820651E-14, 0.5449999999999994849, 9.000000000000001776 ) ) ;
#114 = APPROVAL_ROLE ( '' ) ;
#115 = PERSON_AND_ORGANIZATION ( #108, #126 ) ;
#116 = DATE_AND_TIME ( #148, #70 ) ;
#117 = APPROVAL_ROLE ( '' ) ;
#118 = ADVANCED_FACE ( 'NONE', ( #49 ), #48, .F. ) ;
#119 = CC_DESIGN_APPROVAL ( #94, ( #176 ) ) ;
#120 = AXIS2_PLACEMENT_3D ( 'NONE', #215, #93, #196 ) ;
#121 = EDGE_LOOP ( 'NONE', ( #23 ) ) ;
#122 = VERTEX_POINT ( 'NONE', #177 ) ;
#123 =( LENGTH_UNIT ( ) NAMED_UNIT ( * ) SI_UNIT ( .MILLI., .METRE. ) );
#124 = ADVANCED_FACE ( 'NONE', ( #125 ), #106, .T. ) ;
#125 = FACE_OUTER_BOUND ( 'NONE', #4, .T. ) ;
#126 = ORGANIZATION ( 'UNSPECIFIED', 'UNSPECIFIED', '' ) ;
#127 = DIRECTION ( 'NONE',  ( 0.0000000000000000000, 1.000000000000000000, 0.0000000000000000000 ) ) ;
#128 = FACE_OUTER_BOUND ( 'NONE', #121, .T. ) ;
#129 = APPLICATION_CONTEXT ( 'configuration controlled 3d designs of mechanical parts and assemblies' ) ;
#130 = AXIS2_PLACEMENT_3D ( 'NONE', #90, #208, #55 ) ;
#131 = PERSON_AND_ORGANIZATION_ROLE ( 'classification_officer' ) ;
#132 = DATE_AND_TIME ( #32, #102 ) ;
#133 = MANIFOLD_SOLID_BREP ( 'Corps-Déplacer/Copier1[1]', #89 ) ;
#134 = DIRECTION ( 'NONE',  ( -3.491481338843133355E-15, 1.224646799147353207E-16, -1.000000000000000000 ) ) ;
#135 = PERSON_AND_ORGANIZATION ( #108, #126 ) ;
#136 = ADVANCED_FACE ( 'NONE', ( #172, #36 ), #62, .T. ) ;
#137 = FACE_OUTER_BOUND ( 'NONE', #58, .T. ) ;
#138 = DIRECTION ( 'NONE',  ( -3.491481338843133355E-15, 1.224646799147353207E-16, -1.000000000000000000 ) ) ;
#139 = CIRCLE ( 'NONE', #174, 0.5450000000000005951 ) ;
#140 = APPROVAL_PERSON_ORGANIZATION ( #18, #33, #117 ) ;
#141 = ORIENTED_EDGE ( 'NONE', *, *, #10, .F. ) ;
#142 = EDGE_LOOP ( 'NONE', ( #105 ) ) ;
#143 = CARTESIAN_POINT ( 'NONE',  ( 3.266305377946195173E-14, 0.7499999999999963363, 9.355070415551619334 ) ) ;
#144 = DIRECTION ( 'NONE',  ( 0.0000000000000000000, 1.000000000000000000, 0.0000000000000000000 ) ) ;
#145 = CARTESIAN_POINT ( 'NONE',  ( 1.047444401652940007E-13, -3.673940397442059178E-15, 30.00000000000000000 ) ) ;
#146 = CARTESIAN_POINT ( 'NONE',  ( 0.0000000000000000000, 0.0000000000000000000, 0.0000000000000000000 ) ) ;
#147 = CONICAL_SURFACE ( 'NONE', #158, 0.5449999999999989297, 1.047197551196592746 ) ;
#148 = CALENDAR_DATE ( 2021, 8, 10 ) ;
#149 = CARTESIAN_POINT ( 'NONE',  ( 1.047444401652940007E-13, -3.673940397442059178E-15, 30.00000000000000000 ) ) ;
#150 = PERSON_AND_ORGANIZATION_ROLE ( 'design_owner' ) ;
#151 = CC_DESIGN_PERSON_AND_ORGANIZATION_ASSIGNMENT ( #195, #150, ( #103 ) ) ;
#152 = AXIS2_PLACEMENT_3D ( 'NONE', #182, #46, #66 ) ;
#153 = CALENDAR_DATE ( 2021, 8, 10 ) ;
#154 = APPLICATION_CONTEXT ( 'configuration controlled 3d designs of mechanical parts and assemblies' ) ;
#155 = CIRCLE ( 'NONE', #120, 0.5450000000000005951 ) ;
#156 = ADVANCED_FACE ( 'NONE', ( #128, #75 ), #73, .T. ) ;
#157 = DIRECTION ( 'NONE',  ( -3.491481338843133355E-15, 1.224646799147353207E-16, -1.000000000000000000 ) ) ;
#158 = AXIS2_PLACEMENT_3D ( 'NONE', #17, #199, #67 ) ;
#159 = PRODUCT_RELATED_PRODUCT_CATEGORY ( 'detail', '', ( #103 ) ) ;
#160 = DIRECTION ( 'NONE',  ( 3.533816411719705735E-31, 1.000000000000000000, 9.946808921885381264E-17 ) ) ;
#161 = ADVANCED_BREP_SHAPE_REPRESENTATION ( '958021', ( #133, #56, #51 ), #83 ) ;
#162 = DIRECTION ( 'NONE',  ( -3.491481338843133355E-15, 1.224646799147353207E-16, -1.000000000000000000 ) ) ;
#163 = DIRECTION ( 'NONE',  ( 4.275831445896959482E-31, 1.000000000000000000, 1.224646799147353207E-16 ) ) ;
#164 = APPROVAL_ROLE ( '' ) ;
#165 = DIRECTION ( 'NONE',  ( 0.0000000000000000000, 1.000000000000000000, 0.0000000000000000000 ) ) ;
#166 = EDGE_CURVE ( 'NONE', #11, #11, #64, .T. ) ;
#167 = DATE_TIME_ROLE ( 'classification_date' ) ;
#168 = PERSON_AND_ORGANIZATION_ROLE ( 'creator' ) ;
#169 = EDGE_LOOP ( 'NONE', ( #204 ) ) ;
#170 = EDGE_CURVE ( 'NONE', #206, #206, #16, .T. ) ;
#171 = ORIENTED_EDGE ( 'NONE', *, *, #222, .F. ) ;
#172 = FACE_OUTER_BOUND ( 'NONE', #74, .T. ) ;
#173 = DIRECTION ( 'NONE',  ( 3.491481338843133355E-15, -1.224646799147353207E-16, 1.000000000000000000 ) ) ;
#174 = AXIS2_PLACEMENT_3D ( 'NONE', #92, #162, #144 ) ;
#175 = CARTESIAN_POINT ( 'NONE',  ( 1.040461438975253740E-13, -3.649447461459112464E-15, 29.80000000000000071 ) ) ;
#176 = PRODUCT_DEFINITION_FORMATION_WITH_SPECIFIED_SOURCE ( 'ANY', '', #103, .NOT_KNOWN. ) ;
#177 = CARTESIAN_POINT ( 'NONE',  ( 1.047444401652940007E-13, 0.5499999999999963807, 30.00000000000000000 ) ) ;
#178 = AXIS2_PLACEMENT_3D ( 'NONE', #218, #100, #65 ) ;
#179 = COORDINATED_UNIVERSAL_TIME_OFFSET ( 1, 0, .AHEAD. ) ;
#180 = CC_DESIGN_DATE_AND_TIME_ASSIGNMENT ( #30, #167, ( #201 ) ) ;
#181 = COORDINATED_UNIVERSAL_TIME_OFFSET ( 1, 0, .AHEAD. ) ;
#182 = CARTESIAN_POINT ( 'NONE',  ( 3.266305377946195173E-14, -1.145665704020339005E-15, 9.355070415551619334 ) ) ;
#183 = CLOSED_SHELL ( 'NONE', ( #88, #136, #124 ) ) ;
#184 = AXIS2_PLACEMENT_3D ( 'NONE', #145, #190, #127 ) ;
#185 = EDGE_CURVE ( 'NONE', #122, #122, #214, .T. ) ;
#186 = ORIENTED_EDGE ( 'NONE', *, *, #170, .T. ) ;
#187 = DESIGN_CONTEXT ( 'detailed design', #154, 'design' ) ;
#188 = DIRECTION ( 'NONE',  ( -3.491481338843133355E-15, 1.224646799147353207E-16, -1.000000000000000000 ) ) ;
#189 = AXIS2_PLACEMENT_3D ( 'NONE', #212, #157, #109 ) ;
#190 = DIRECTION ( 'NONE',  ( -3.491481338843133355E-15, 1.224646799147353207E-16, -1.000000000000000000 ) ) ;
#191 = ADVANCED_FACE ( 'NONE', ( #107, #35 ), #81, .T. ) ;
#192 = CC_DESIGN_APPROVAL ( #69, ( #110 ) ) ;
#193 = APPROVAL_DATE_TIME ( #116, #94 ) ;
#194 = AXIS2_PLACEMENT_3D ( 'NONE', #223, #138, #13 ) ;
#195 = PERSON_AND_ORGANIZATION ( #108, #126 ) ;
#196 = DIRECTION ( 'NONE',  ( 0.0000000000000000000, 1.000000000000000000, 0.0000000000000000000 ) ) ;
#197 = PERSON_AND_ORGANIZATION_ROLE ( 'design_supplier' ) ;
#198 = APPROVAL_STATUS ( 'not_yet_approved' ) ;
#199 = DIRECTION ( 'NONE',  ( 3.491481338843133355E-15, -1.224646799147353207E-16, 1.000000000000000000 ) ) ;
#200 = AXIS2_PLACEMENT_3D ( 'NONE', #112, #38, #163 ) ;
#201 = SECURITY_CLASSIFICATION ( '', '', #220 ) ;
#202 = EDGE_LOOP ( 'NONE', ( #50 ) ) ;
#203 = CIRCLE ( 'NONE', #152, 0.7499999999999975575 ) ;
#204 = ORIENTED_EDGE ( 'NONE', *, *, #45, .T. ) ;
#205 = ORIENTED_EDGE ( 'NONE', *, *, #166, .T. ) ;
#206 = VERTEX_POINT ( 'NONE', #59 ) ;
#207 = CARTESIAN_POINT ( 'NONE',  ( 1.040461438975253740E-13, 0.7499999999999963363, 29.80000000000000071 ) ) ;
#208 = DIRECTION ( 'NONE',  ( 3.491481338843133355E-15, -1.224646799147353207E-16, 1.000000000000000000 ) ) ;
#209 = CC_DESIGN_DATE_AND_TIME_ASSIGNMENT ( #132, #213, ( #110 ) ) ;
#210 = VERTEX_POINT ( 'NONE', #143 ) ;
#211 = LOCAL_TIME ( 10, 13, 15.00000000000000000, #29 ) ;
#212 = CARTESIAN_POINT ( 'NONE',  ( 0.0000000000000000000, 0.0000000000000000000, 0.0000000000000000000 ) ) ;
#213 = DATE_TIME_ROLE ( 'creation_date' ) ;
#214 = CIRCLE ( 'NONE', #184, 0.5500000000000000444 ) ;
#215 = CARTESIAN_POINT ( 'NONE',  ( 3.142333204958820651E-14, -1.102182119232617911E-15, 9.000000000000001776 ) ) ;
#216 = PERSON_AND_ORGANIZATION ( #108, #126 ) ;
#217 = SHAPE_DEFINITION_REPRESENTATION ( #1, #161 ) ;
#218 = CARTESIAN_POINT ( 'NONE',  ( 3.142333204958820651E-14, -2.083555098183231510E-31, 9.000000000000001776 ) ) ;
#219 = LOCAL_TIME ( 10, 13, 15.00000000000000000, #101 ) ;
#220 = SECURITY_CLASSIFICATION_LEVEL ( 'unclassified' ) ;
#221 = FACE_BOUND ( 'NONE', #202, .T. ) ;
#222 = EDGE_CURVE ( 'NONE', #25, #25, #139, .T. ) ;
#223 = CARTESIAN_POINT ( 'NONE',  ( 1.047444401652940007E-13, 4.124339402320052999E-33, 30.00000000000000000 ) ) ;
ENDSEC;
END-ISO-10303-21;
