ISO-10303-21;
HEADER;
FILE_DESCRIPTION (( 'STEP AP203' ),
    '1' );
FILE_NAME ('958020.step',
    '2021-10-08T05:54:18',
    ( '' ),
    ( '' ),
    'SwSTEP 2.0',
    'SolidWorks 2019',
    '' );
FILE_SCHEMA (( 'CONFIG_CONTROL_DESIGN' ));
ENDSEC;

DATA;
#1 = CARTESIAN_POINT ( 'NONE',  ( 1.098615191514153003E-15, -3.853423367367198464E-17, 0.3146558967083490366 ) ) ;
#2 = CIRCLE ( 'NONE', #215, 0.5450000000000005951 ) ;
#3 = DIRECTION ( 'NONE',  ( -4.275831445896958607E-31, -1.000000000000000000, -1.224646799147353207E-16 ) ) ;
#4 = DIRECTION ( 'NONE',  ( -3.491481338843133355E-15, 1.224646799147353207E-16, -1.000000000000000000 ) ) ;
#5 = CARTESIAN_POINT ( 'NONE',  ( 3.142333204958820651E-14, 0.5449999999999994849, 9.000000000000001776 ) ) ;
#6 = CIRCLE ( 'NONE', #67, 0.5449999999999989297 ) ;
#7 = APPROVAL_DATE_TIME ( #106, #197 ) ;
#8 = CC_DESIGN_PERSON_AND_ORGANIZATION_ASSIGNMENT ( #9, #101, ( #212 ) ) ;
#9 = PERSON_AND_ORGANIZATION ( #134, #84 ) ;
#10 = PRODUCT_RELATED_PRODUCT_CATEGORY ( 'detail', '', ( #212 ) ) ;
#11 = CALENDAR_DATE ( 2021, 8, 10 ) ;
#12 = COORDINATED_UNIVERSAL_TIME_OFFSET ( 1, 0, .AHEAD. ) ;
#13 = PERSON_AND_ORGANIZATION ( #134, #84 ) ;
#14 = ORIENTED_EDGE ( 'NONE', *, *, #98, .T. ) ;
#15 = CC_DESIGN_SECURITY_CLASSIFICATION ( #88, ( #160 ) ) ;
#16 = EDGE_LOOP ( 'NONE', ( #54 ) ) ;
#17 = PRODUCT_DEFINITION ( 'UNKNOWN', '', #160, #42 ) ;
#18 = EDGE_LOOP ( 'NONE', ( #111 ) ) ;
#19 = DIRECTION ( 'NONE',  ( 0.0000000000000000000, -1.000000000000000000, 0.0000000000000000000 ) ) ;
#20 = CLOSED_SHELL ( 'NONE', ( #114, #27, #59 ) ) ;
#21 = ORIENTED_EDGE ( 'NONE', *, *, #98, .F. ) ;
#22 = FACE_OUTER_BOUND ( 'NONE', #69, .T. ) ;
#23 = FACE_OUTER_BOUND ( 'NONE', #37, .T. ) ;
#24 = AXIS2_PLACEMENT_3D ( 'NONE', #210, #165, #3 ) ;
#25 = CC_DESIGN_DATE_AND_TIME_ASSIGNMENT ( #216, #181, ( #88 ) ) ;
#26 = UNCERTAINTY_MEASURE_WITH_UNIT (LENGTH_MEASURE( 1.000000000000000082E-05 ), #137, 'distance_accuracy_value', 'NONE');
#27 = ADVANCED_FACE ( 'NONE', ( #144, #175 ), #189, .T. ) ;
#28 = PERSON_AND_ORGANIZATION ( #134, #84 ) ;
#29 = CONICAL_SURFACE ( 'NONE', #171, 0.5449999999999989297, 1.047197551196592746 ) ;
#30 = SHAPE_DEFINITION_REPRESENTATION ( #153, #185 ) ;
#31 = PERSON_AND_ORGANIZATION_ROLE ( 'creator' ) ;
#32 = MANIFOLD_SOLID_BREP ( 'Corps-Déplacer/Copier1[1]', #90 ) ;
#33 = LOCAL_TIME ( 7, 54, 18.00000000000000000, #170 ) ;
#34 = DATE_TIME_ROLE ( 'creation_date' ) ;
#35 = AXIS2_PLACEMENT_3D ( 'NONE', #40, #93, #167 ) ;
#36 = EDGE_LOOP ( 'NONE', ( #162 ) ) ;
#37 = EDGE_LOOP ( 'NONE', ( #72 ) ) ;
#38 = CARTESIAN_POINT ( 'NONE',  ( 3.142333204958820651E-14, -1.102182119232617911E-15, 9.000000000000001776 ) ) ;
#39 = DIRECTION ( 'NONE',  ( -3.491481338843133355E-15, 1.224646799147353207E-16, -1.000000000000000000 ) ) ;
#40 = CARTESIAN_POINT ( 'NONE',  ( 0.0000000000000000000, 0.0000000000000000000, 0.0000000000000000000 ) ) ;
#41 = APPLICATION_PROTOCOL_DEFINITION ( 'international standard', 'config_control_design', 1994, #154 ) ;
#42 = DESIGN_CONTEXT ( 'detailed design', #180, 'design' ) ;
#43 = VERTEX_POINT ( 'NONE', #5 ) ;
#44 = EDGE_CURVE ( 'NONE', #58, #58, #65, .T. ) ;
#45 = CARTESIAN_POINT ( 'NONE',  ( 1.047444401652940007E-13, -3.673940397442059178E-15, 30.00000000000000000 ) ) ;
#46 = CALENDAR_DATE ( 2021, 8, 10 ) ;
#47 = AXIS2_PLACEMENT_3D ( 'NONE', #220, #145, #222 ) ;
#48 = PERSON_AND_ORGANIZATION_ROLE ( 'design_supplier' ) ;
#49 = DATE_AND_TIME ( #46, #33 ) ;
#50 = AXIS2_PLACEMENT_3D ( 'NONE', #38, #73, #146 ) ;
#51 = ADVANCED_FACE ( 'NONE', ( #204, #107 ), #148, .T. ) ;
#52 = ORIENTED_EDGE ( 'NONE', *, *, #174, .T. ) ;
#53 = CARTESIAN_POINT ( 'NONE',  ( 3.142333204958820651E-14, -2.083555098183231510E-31, 9.000000000000001776 ) ) ;
#54 = ORIENTED_EDGE ( 'NONE', *, *, #94, .T. ) ;
#55 = DIRECTION ( 'NONE',  ( -3.491481338843133355E-15, 1.224646799147353207E-16, -1.000000000000000000 ) ) ;
#56 = AXIS2_PLACEMENT_3D ( 'NONE', #205, #70, #92 ) ;
#57 = AXIS2_PLACEMENT_3D ( 'NONE', #102, #199, #157 ) ;
#58 = VERTEX_POINT ( 'NONE', #178 ) ;
#59 = ADVANCED_FACE ( 'NONE', ( #89 ), #130, .T. ) ;
#60 = CARTESIAN_POINT ( 'NONE',  ( 3.142333204958820651E-14, 0.5449999999999994849, 9.000000000000001776 ) ) ;
#61 = CARTESIAN_POINT ( 'NONE',  ( 1.040461438975253740E-13, 0.7499999999999964473, 29.80000000000000071 ) ) ;
#62 = CYLINDRICAL_SURFACE ( 'NONE', #35, 0.7499999999999987788 ) ;
#63 = APPROVAL_STATUS ( 'not_yet_approved' ) ;
#64 = APPROVAL_DATE_TIME ( #156, #71 ) ;
#65 = CIRCLE ( 'NONE', #56, 0.7499999999999975575 ) ;
#66 = PERSON_AND_ORGANIZATION ( #134, #84 ) ;
#67 = AXIS2_PLACEMENT_3D ( 'NONE', #191, #115, #87 ) ;
#68 = EDGE_LOOP ( 'NONE', ( #201 ) ) ;
#69 = EDGE_LOOP ( 'NONE', ( #14 ) ) ;
#70 = DIRECTION ( 'NONE',  ( -3.491481338843133355E-15, 1.224646799147353207E-16, -1.000000000000000000 ) ) ;
#71 = APPROVAL ( #140, 'UNSPECIFIED' ) ;
#72 = ORIENTED_EDGE ( 'NONE', *, *, #110, .T. ) ;
#73 = DIRECTION ( 'NONE',  ( -3.491481338843133355E-15, 1.224646799147353207E-16, -1.000000000000000000 ) ) ;
#74 = FACE_OUTER_BOUND ( 'NONE', #218, .T. ) ;
#75 = AXIS2_PLACEMENT_3D ( 'NONE', #95, #4, #77 ) ;
#76 = APPROVAL_PERSON_ORGANIZATION ( #83, #197, #169 ) ;
#77 = DIRECTION ( 'NONE',  ( 4.275831445896958607E-31, 1.000000000000000000, 1.224646799147353207E-16 ) ) ;
#78 = DIRECTION ( 'NONE',  ( -3.491481338843133355E-15, 1.224646799147353207E-16, -1.000000000000000000 ) ) ;
#79 = VERTEX_POINT ( 'NONE', #61 ) ;
#80 = CALENDAR_DATE ( 2021, 8, 10 ) ;
#81 = APPROVAL_ROLE ( '' ) ;
#82 = APPROVAL ( #85, 'UNSPECIFIED' ) ;
#83 = PERSON_AND_ORGANIZATION ( #134, #84 ) ;
#84 = ORGANIZATION ( 'UNSPECIFIED', 'UNSPECIFIED', '' ) ;
#85 = APPROVAL_STATUS ( 'not_yet_approved' ) ;
#86 = APPROVAL_ROLE ( '' ) ;
#87 = DIRECTION ( 'NONE',  ( 3.533816411719705735E-31, 1.000000000000000000, 9.946808921885381264E-17 ) ) ;
#88 = SECURITY_CLASSIFICATION ( '', '', #159 ) ;
#89 = FACE_OUTER_BOUND ( 'NONE', #18, .T. ) ;
#90 = CLOSED_SHELL ( 'NONE', ( #223, #51, #161, #187, #155 ) ) ;
#91 =( GEOMETRIC_REPRESENTATION_CONTEXT ( 3 ) GLOBAL_UNCERTAINTY_ASSIGNED_CONTEXT ( ( #26 ) ) GLOBAL_UNIT_ASSIGNED_CONTEXT ( ( #137, #149, #97 ) ) REPRESENTATION_CONTEXT ( 'NONE', 'WORKASPACE' ) );
#92 = DIRECTION ( 'NONE',  ( 0.0000000000000000000, 1.000000000000000000, 0.0000000000000000000 ) ) ;
#93 = DIRECTION ( 'NONE',  ( -3.491481338843133355E-15, 1.224646799147353207E-16, -1.000000000000000000 ) ) ;
#94 = EDGE_CURVE ( 'NONE', #43, #43, #168, .T. ) ;
#95 = CARTESIAN_POINT ( 'NONE',  ( 1.047444401652940007E-13, 4.124339402320052999E-33, 30.00000000000000000 ) ) ;
#96 = CIRCLE ( 'NONE', #113, 0.7500000000000001110 ) ;
#97 =( NAMED_UNIT ( * ) SI_UNIT ( $, .STERADIAN. ) SOLID_ANGLE_UNIT ( ) );
#98 = EDGE_CURVE ( 'NONE', #79, #79, #96, .T. ) ;
#99 = FACE_OUTER_BOUND ( 'NONE', #128, .T. ) ;
#100 = DIRECTION ( 'NONE',  ( -3.491481338843133355E-15, 1.224646799147353207E-16, -1.000000000000000000 ) ) ;
#101 = PERSON_AND_ORGANIZATION_ROLE ( 'design_owner' ) ;
#102 = CARTESIAN_POINT ( 'NONE',  ( 0.0000000000000000000, 0.0000000000000000000, 0.0000000000000000000 ) ) ;
#103 = COORDINATED_UNIVERSAL_TIME_OFFSET ( 1, 0, .AHEAD. ) ;
#104 = MECHANICAL_CONTEXT ( 'NONE', #154, 'mechanical' ) ;
#105 = AXIS2_PLACEMENT_3D ( 'NONE', #45, #78, #151 ) ;
#106 = DATE_AND_TIME ( #11, #221 ) ;
#107 = FACE_OUTER_BOUND ( 'NONE', #109, .T. ) ;
#108 = APPROVAL_PERSON_ORGANIZATION ( #28, #71, #86 ) ;
#109 = EDGE_LOOP ( 'NONE', ( #219 ) ) ;
#110 = EDGE_CURVE ( 'NONE', #194, #194, #6, .T. ) ;
#111 = ORIENTED_EDGE ( 'NONE', *, *, #94, .F. ) ;
#112 = ORIENTED_EDGE ( 'NONE', *, *, #138, .T. ) ;
#113 = AXIS2_PLACEMENT_3D ( 'NONE', #141, #55, #131 ) ;
#114 = ADVANCED_FACE ( 'NONE', ( #23 ), #29, .T. ) ;
#115 = DIRECTION ( 'NONE',  ( -3.491481338843133355E-15, 1.224646799147353207E-16, -1.000000000000000000 ) ) ;
#116 = CC_DESIGN_PERSON_AND_ORGANIZATION_ASSIGNMENT ( #66, #48, ( #160 ) ) ;
#117 = CARTESIAN_POINT ( 'NONE',  ( 1.047444401652940007E-13, -3.673940397442059178E-15, 30.00000000000000000 ) ) ;
#118 = MANIFOLD_SOLID_BREP ( 'Corps-Déplacer/Copier1[2]', #20 ) ;
#119 = CARTESIAN_POINT ( 'NONE',  ( 1.047444401652940007E-13, 0.5499999999999963807, 30.00000000000000000 ) ) ;
#120 = DATE_AND_TIME ( #123, #192 ) ;
#121 = PERSON_AND_ORGANIZATION ( #134, #84 ) ;
#122 = LOCAL_TIME ( 7, 54, 18.00000000000000000, #103 ) ;
#123 = CALENDAR_DATE ( 2021, 8, 10 ) ;
#124 = PERSON_AND_ORGANIZATION_ROLE ( 'classification_officer' ) ;
#125 = APPROVAL_DATE_TIME ( #120, #82 ) ;
#126 = ORIENTED_EDGE ( 'NONE', *, *, #44, .F. ) ;
#127 = CC_DESIGN_DATE_AND_TIME_ASSIGNMENT ( #49, #34, ( #17 ) ) ;
#128 = EDGE_LOOP ( 'NONE', ( #188 ) ) ;
#129 = EDGE_LOOP ( 'NONE', ( #52 ) ) ;
#130 = PLANE ( 'NONE',  #217 ) ;
#131 = DIRECTION ( 'NONE',  ( 0.0000000000000000000, 1.000000000000000000, 0.0000000000000000000 ) ) ;
#132 = AXIS2_PLACEMENT_3D ( 'NONE', #117, #100, #133 ) ;
#133 = DIRECTION ( 'NONE',  ( 0.0000000000000000000, 1.000000000000000000, 0.0000000000000000000 ) ) ;
#134 = PERSON ( 'UNSPECIFIED', 'UNSPECIFIED', 'UNSPECIFIED', ('UNSPECIFIED'), ('UNSPECIFIED'), ('UNSPECIFIED') ) ;
#135 = DIRECTION ( 'NONE',  ( 0.0000000000000000000, 1.000000000000000000, 0.0000000000000000000 ) ) ;
#136 = CC_DESIGN_APPROVAL ( #197, ( #17 ) ) ;
#137 =( LENGTH_UNIT ( ) NAMED_UNIT ( * ) SI_UNIT ( .MILLI., .METRE. ) );
#138 = EDGE_CURVE ( 'NONE', #209, #209, #203, .T. ) ;
#139 = COORDINATED_UNIVERSAL_TIME_OFFSET ( 1, 0, .AHEAD. ) ;
#140 = APPROVAL_STATUS ( 'not_yet_approved' ) ;
#141 = CARTESIAN_POINT ( 'NONE',  ( 1.040461438975253740E-13, -3.649447461459112464E-15, 29.80000000000000071 ) ) ;
#142 = EDGE_LOOP ( 'NONE', ( #126 ) ) ;
#143 = CC_DESIGN_PERSON_AND_ORGANIZATION_ASSIGNMENT ( #198, #124, ( #88 ) ) ;
#144 = FACE_OUTER_BOUND ( 'NONE', #36, .T. ) ;
#145 = DIRECTION ( 'NONE',  ( -3.491481338843133355E-15, 1.224646799147353207E-16, -1.000000000000000000 ) ) ;
#146 = DIRECTION ( 'NONE',  ( 0.0000000000000000000, 1.000000000000000000, 0.0000000000000000000 ) ) ;
#147 = DIRECTION ( 'NONE',  ( 3.491481338843133355E-15, -1.224646799147353207E-16, 1.000000000000000000 ) ) ;
#148 = CONICAL_SURFACE ( 'NONE', #176, 0.7499999999999975575, 0.5235987755982944858 ) ;
#149 =( NAMED_UNIT ( * ) PLANE_ANGLE_UNIT ( ) SI_UNIT ( $, .RADIAN. ) );
#150 = CC_DESIGN_PERSON_AND_ORGANIZATION_ASSIGNMENT ( #214, #183, ( #160 ) ) ;
#151 = DIRECTION ( 'NONE',  ( 0.0000000000000000000, 1.000000000000000000, 0.0000000000000000000 ) ) ;
#152 = CARTESIAN_POINT ( 'NONE',  ( 1.098615191514153200E-15, 0.5449999999999989297, 0.3146558967083490921 ) ) ;
#153 = PRODUCT_DEFINITION_SHAPE ( 'NONE', 'NONE',  #17 ) ;
#154 = APPLICATION_CONTEXT ( 'configuration controlled 3d designs of mechanical parts and assemblies' ) ;
#155 = ADVANCED_FACE ( 'NONE', ( #99 ), #166, .F. ) ;
#156 = DATE_AND_TIME ( #80, #122 ) ;
#157 = DIRECTION ( 'NONE',  ( 1.000000000000000000, 0.0000000000000000000, 0.0000000000000000000 ) ) ;
#158 = CONICAL_SURFACE ( 'NONE', #105, 0.5500000000000000444, 0.7853981633974516097 ) ;
#159 = SECURITY_CLASSIFICATION_LEVEL ( 'unclassified' ) ;
#160 = PRODUCT_DEFINITION_FORMATION_WITH_SPECIFIED_SOURCE ( 'ANY', '', #212, .NOT_KNOWN. ) ;
#161 = ADVANCED_FACE ( 'NONE', ( #195, #22 ), #62, .T. ) ;
#162 = ORIENTED_EDGE ( 'NONE', *, *, #110, .F. ) ;
#163 = PLANE ( 'NONE',  #24 ) ;
#164 = CC_DESIGN_PERSON_AND_ORGANIZATION_ASSIGNMENT ( #121, #31, ( #17 ) ) ;
#165 = DIRECTION ( 'NONE',  ( 3.491481338843133355E-15, -1.224646799147353207E-16, 1.000000000000000000 ) ) ;
#166 = PLANE ( 'NONE',  #75 ) ;
#167 = DIRECTION ( 'NONE',  ( 4.275831445896959482E-31, 1.000000000000000000, 1.224646799147353207E-16 ) ) ;
#168 = CIRCLE ( 'NONE', #50, 0.5450000000000005951 ) ;
#169 = APPROVAL_ROLE ( '' ) ;
#170 = COORDINATED_UNIVERSAL_TIME_OFFSET ( 1, 0, .AHEAD. ) ;
#171 = AXIS2_PLACEMENT_3D ( 'NONE', #1, #147, #179 ) ;
#172 = CARTESIAN_POINT ( 'NONE',  ( 3.266305377946195173E-14, -1.145665704020339005E-15, 9.355070415551619334 ) ) ;
#173 = EDGE_LOOP ( 'NONE', ( #112 ) ) ;
#174 = EDGE_CURVE ( 'NONE', #213, #213, #2, .T. ) ;
#175 = FACE_OUTER_BOUND ( 'NONE', #16, .T. ) ;
#176 = AXIS2_PLACEMENT_3D ( 'NONE', #172, #202, #19 ) ;
#177 = CARTESIAN_POINT ( 'NONE',  ( 3.142333204958820651E-14, -1.102182119232617911E-15, 9.000000000000001776 ) ) ;
#178 = CARTESIAN_POINT ( 'NONE',  ( 3.266305377946195173E-14, 0.7499999999999963363, 9.355070415551619334 ) ) ;
#179 = DIRECTION ( 'NONE',  ( -3.533816411719705735E-31, -1.000000000000000000, -9.946808921885381264E-17 ) ) ;
#180 = APPLICATION_CONTEXT ( 'configuration controlled 3d designs of mechanical parts and assemblies' ) ;
#181 = DATE_TIME_ROLE ( 'classification_date' ) ;
#182 = APPROVAL_PERSON_ORGANIZATION ( #13, #82, #81 ) ;
#183 = PERSON_AND_ORGANIZATION_ROLE ( 'creator' ) ;
#184 = COORDINATED_UNIVERSAL_TIME_OFFSET ( 1, 0, .AHEAD. ) ;
#185 = ADVANCED_BREP_SHAPE_REPRESENTATION ( '958020', ( #32, #118, #57 ), #91 ) ;
#186 = CALENDAR_DATE ( 2021, 8, 10 ) ;
#187 = ADVANCED_FACE ( 'NONE', ( #74, #207 ), #158, .T. ) ;
#188 = ORIENTED_EDGE ( 'NONE', *, *, #138, .F. ) ;
#189 = CYLINDRICAL_SURFACE ( 'NONE', #47, 0.5449999999999997069 ) ;
#190 = DIRECTION ( 'NONE',  ( 3.491481338843133355E-15, -1.224646799147353207E-16, 1.000000000000000000 ) ) ;
#191 = CARTESIAN_POINT ( 'NONE',  ( 1.098615191514153003E-15, -3.853423367367198464E-17, 0.3146558967083490366 ) ) ;
#192 = LOCAL_TIME ( 7, 54, 18.00000000000000000, #139 ) ;
#193 = FACE_OUTER_BOUND ( 'NONE', #129, .T. ) ;
#194 = VERTEX_POINT ( 'NONE', #152 ) ;
#195 = FACE_OUTER_BOUND ( 'NONE', #142, .T. ) ;
#196 = CC_DESIGN_APPROVAL ( #82, ( #160 ) ) ;
#197 = APPROVAL ( #63, 'UNSPECIFIED' ) ;
#198 = PERSON_AND_ORGANIZATION ( #134, #84 ) ;
#199 = DIRECTION ( 'NONE',  ( 0.0000000000000000000, 0.0000000000000000000, 1.000000000000000000 ) ) ;
#200 = APPLICATION_PROTOCOL_DEFINITION ( 'international standard', 'config_control_design', 1994, #180 ) ;
#201 = ORIENTED_EDGE ( 'NONE', *, *, #174, .F. ) ;
#202 = DIRECTION ( 'NONE',  ( 3.491481338843133355E-15, -1.224646799147353207E-16, 1.000000000000000000 ) ) ;
#203 = CIRCLE ( 'NONE', #132, 0.5500000000000000444 ) ;
#204 = FACE_BOUND ( 'NONE', #68, .T. ) ;
#205 = CARTESIAN_POINT ( 'NONE',  ( 3.266305377946195173E-14, -1.145665704020339005E-15, 9.355070415551619334 ) ) ;
#206 = DIRECTION ( 'NONE',  ( -4.275831445896958607E-31, -1.000000000000000000, -1.224646799147353207E-16 ) ) ;
#207 = FACE_BOUND ( 'NONE', #173, .T. ) ;
#208 = CC_DESIGN_APPROVAL ( #71, ( #88 ) ) ;
#209 = VERTEX_POINT ( 'NONE', #119 ) ;
#210 = CARTESIAN_POINT ( 'NONE',  ( 3.142333204958820651E-14, -2.083555098183231510E-31, 9.000000000000001776 ) ) ;
#211 = LOCAL_TIME ( 7, 54, 18.00000000000000000, #184 ) ;
#212 = PRODUCT ( '958020', '958020', '', ( #104 ) ) ;
#213 = VERTEX_POINT ( 'NONE', #60 ) ;
#214 = PERSON_AND_ORGANIZATION ( #134, #84 ) ;
#215 = AXIS2_PLACEMENT_3D ( 'NONE', #177, #39, #135 ) ;
#216 = DATE_AND_TIME ( #186, #211 ) ;
#217 = AXIS2_PLACEMENT_3D ( 'NONE', #53, #190, #206 ) ;
#218 = EDGE_LOOP ( 'NONE', ( #21 ) ) ;
#219 = ORIENTED_EDGE ( 'NONE', *, *, #44, .T. ) ;
#220 = CARTESIAN_POINT ( 'NONE',  ( 0.0000000000000000000, 0.0000000000000000000, 0.0000000000000000000 ) ) ;
#221 = LOCAL_TIME ( 7, 54, 18.00000000000000000, #12 ) ;
#222 = DIRECTION ( 'NONE',  ( 4.275831445896958607E-31, 1.000000000000000000, 1.224646799147353207E-16 ) ) ;
#223 = ADVANCED_FACE ( 'NONE', ( #193 ), #163, .F. ) ;
ENDSEC;
END-ISO-10303-21;
