ISO-10303-21;
HEADER;
FILE_DESCRIPTION (( 'STEP AP203' ),
    '1' );
FILE_NAME ('958018.step',
    '2021-10-08T08:13:14',
    ( '' ),
    ( '' ),
    'SwSTEP 2.0',
    'SolidWorks 2019',
    '' );
FILE_SCHEMA (( 'CONFIG_CONTROL_DESIGN' ));
ENDSEC;

DATA;
#1 = APPROVAL_STATUS ( 'not_yet_approved' ) ;
#2 = APPROVAL_ROLE ( '' ) ;
#3 = APPLICATION_CONTEXT ( 'configuration controlled 3d designs of mechanical parts and assemblies' ) ;
#4 = AXIS2_PLACEMENT_3D ( 'NONE', #69, #177, #110 ) ;
#5 = SECURITY_CLASSIFICATION_LEVEL ( 'unclassified' ) ;
#6 = PRODUCT_DEFINITION_SHAPE ( 'NONE', 'NONE',  #112 ) ;
#7 = PERSON_AND_ORGANIZATION_ROLE ( 'design_owner' ) ;
#8 = CARTESIAN_POINT ( 'NONE',  ( 1.040461438975253740E-13, 0.7499999999999963363, 29.80000000000000071 ) ) ;
#9 = EDGE_LOOP ( 'NONE', ( #120 ) ) ;
#10 = ADVANCED_FACE ( 'NONE', ( #48 ), #215, .T. ) ;
#11 = DIRECTION ( 'NONE',  ( -3.633830083749509137E-31, -1.000000000000000000, -1.022832238193874226E-16 ) ) ;
#12 = CALENDAR_DATE ( 2021, 8, 10 ) ;
#13 = APPROVAL_PERSON_ORGANIZATION ( #166, #211, #2 ) ;
#14 = FACE_OUTER_BOUND ( 'NONE', #9, .T. ) ;
#15 = CARTESIAN_POINT ( 'NONE',  ( 1.068378076151378157E-15, -3.747365843494706368E-17, 0.3059956426705045529 ) ) ;
#16 = DIRECTION ( 'NONE',  ( -3.491481338843133355E-15, 1.224646799147353207E-16, -1.000000000000000000 ) ) ;
#17 = DIRECTION ( 'NONE',  ( 0.0000000000000000000, -1.000000000000000000, 0.0000000000000000000 ) ) ;
#18 = DIRECTION ( 'NONE',  ( 3.491481338843133355E-15, -1.224646799147353207E-16, 1.000000000000000000 ) ) ;
#19 = CARTESIAN_POINT ( 'NONE',  ( 3.275376512555028317E-14, 0.7499999999999963363, 9.381051177665153062 ) ) ;
#20 = CONICAL_SURFACE ( 'NONE', #72, 0.7499999999999975575, 0.5235987755982925984 ) ;
#21 = CALENDAR_DATE ( 2021, 8, 10 ) ;
#22 = AXIS2_PLACEMENT_3D ( 'NONE', #148, #210, #55 ) ;
#23 = CALENDAR_DATE ( 2021, 8, 10 ) ;
#24 = APPROVAL ( #197, 'UNSPECIFIED' ) ;
#25 = CALENDAR_DATE ( 2021, 8, 10 ) ;
#26 = EDGE_CURVE ( 'NONE', #129, #129, #223, .T. ) ;
#27 = DIRECTION ( 'NONE',  ( 3.491481338843133355E-15, -1.224646799147353207E-16, 1.000000000000000000 ) ) ;
#28 = AXIS2_PLACEMENT_3D ( 'NONE', #191, #73, #156 ) ;
#29 = DIRECTION ( 'NONE',  ( -3.491481338843133355E-15, 1.224646799147353207E-16, -1.000000000000000000 ) ) ;
#30 = CYLINDRICAL_SURFACE ( 'NONE', #82, 0.7499999999999986677 ) ;
#31 = EDGE_CURVE ( 'NONE', #179, #179, #125, .T. ) ;
#32 = AXIS2_PLACEMENT_3D ( 'NONE', #130, #213, #151 ) ;
#33 = EDGE_CURVE ( 'NONE', #94, #94, #89, .T. ) ;
#34 =( NAMED_UNIT ( * ) SI_UNIT ( $, .STERADIAN. ) SOLID_ANGLE_UNIT ( ) );
#35 = CC_DESIGN_APPROVAL ( #211, ( #49 ) ) ;
#36 = CARTESIAN_POINT ( 'NONE',  ( 3.142333204958820020E-14, 0.5299999999999992495, 9.000000000000000000 ) ) ;
#37 = COORDINATED_UNIVERSAL_TIME_OFFSET ( 1, 0, .AHEAD. ) ;
#38 =( NAMED_UNIT ( * ) PLANE_ANGLE_UNIT ( ) SI_UNIT ( $, .RADIAN. ) );
#39 = CC_DESIGN_PERSON_AND_ORGANIZATION_ASSIGNMENT ( #79, #214, ( #49 ) ) ;
#40 = ORIENTED_EDGE ( 'NONE', *, *, #33, .T. ) ;
#41 = CC_DESIGN_APPROVAL ( #203, ( #127 ) ) ;
#42 = PERSON_AND_ORGANIZATION ( #121, #201 ) ;
#43 = COORDINATED_UNIVERSAL_TIME_OFFSET ( 1, 0, .AHEAD. ) ;
#44 = ORIENTED_EDGE ( 'NONE', *, *, #31, .T. ) ;
#45 = EDGE_LOOP ( 'NONE', ( #137 ) ) ;
#46 = DIRECTION ( 'NONE',  ( 3.633830083749509137E-31, 1.000000000000000000, 1.022832238193874226E-16 ) ) ;
#47 = DATE_AND_TIME ( #12, #149 ) ;
#48 = FACE_OUTER_BOUND ( 'NONE', #103, .T. ) ;
#49 = PRODUCT_DEFINITION_FORMATION_WITH_SPECIFIED_SOURCE ( 'ANY', '', #133, .NOT_KNOWN. ) ;
#50 = MANIFOLD_SOLID_BREP ( 'Corps-Déplacer/Copier1[2]', #212 ) ;
#51 = DIRECTION ( 'NONE',  ( -4.275831445896958607E-31, -1.000000000000000000, -1.224646799147353207E-16 ) ) ;
#52 = FACE_OUTER_BOUND ( 'NONE', #135, .T. ) ;
#53 = ADVANCED_FACE ( 'NONE', ( #219, #52 ), #30, .T. ) ;
#54 =( GEOMETRIC_REPRESENTATION_CONTEXT ( 3 ) GLOBAL_UNCERTAINTY_ASSIGNED_CONTEXT ( ( #147 ) ) GLOBAL_UNIT_ASSIGNED_CONTEXT ( ( #76, #38, #34 ) ) REPRESENTATION_CONTEXT ( 'NONE', 'WORKASPACE' ) );
#55 = DIRECTION ( 'NONE',  ( 4.275831445896958607E-31, 1.000000000000000000, 1.224646799147353207E-16 ) ) ;
#56 = VERTEX_POINT ( 'NONE', #169 ) ;
#57 = VERTEX_POINT ( 'NONE', #36 ) ;
#58 = ADVANCED_FACE ( 'NONE', ( #14, #67 ), #141, .T. ) ;
#59 = PERSON_AND_ORGANIZATION ( #121, #201 ) ;
#60 = APPLICATION_PROTOCOL_DEFINITION ( 'international standard', 'config_control_design', 1994, #3 ) ;
#61 = CC_DESIGN_PERSON_AND_ORGANIZATION_ASSIGNMENT ( #59, #134, ( #49 ) ) ;
#62 = PERSON_AND_ORGANIZATION_ROLE ( 'classification_officer' ) ;
#63 = EDGE_LOOP ( 'NONE', ( #44 ) ) ;
#64 = APPROVAL_PERSON_ORGANIZATION ( #105, #203, #174 ) ;
#65 = EDGE_LOOP ( 'NONE', ( #189 ) ) ;
#66 = AXIS2_PLACEMENT_3D ( 'NONE', #144, #173, #206 ) ;
#67 = FACE_OUTER_BOUND ( 'NONE', #170, .T. ) ;
#68 = CC_DESIGN_PERSON_AND_ORGANIZATION_ASSIGNMENT ( #185, #7, ( #133 ) ) ;
#69 = CARTESIAN_POINT ( 'NONE',  ( 1.040461438975253740E-13, -3.649447461459112464E-15, 29.80000000000000071 ) ) ;
#70 = EDGE_CURVE ( 'NONE', #56, #56, #104, .T. ) ;
#71 = FACE_OUTER_BOUND ( 'NONE', #138, .T. ) ;
#72 = AXIS2_PLACEMENT_3D ( 'NONE', #208, #27, #17 ) ;
#73 = DIRECTION ( 'NONE',  ( -3.491481338843133355E-15, 1.224646799147353207E-16, -1.000000000000000000 ) ) ;
#74 = PLANE ( 'NONE',  #22 ) ;
#75 = ADVANCED_FACE ( 'NONE', ( #92 ), #146, .T. ) ;
#76 =( LENGTH_UNIT ( ) NAMED_UNIT ( * ) SI_UNIT ( .MILLI., .METRE. ) );
#77 = CALENDAR_DATE ( 2021, 8, 10 ) ;
#78 = APPROVAL_DATE_TIME ( #97, #211 ) ;
#79 = PERSON_AND_ORGANIZATION ( #121, #201 ) ;
#80 = EDGE_LOOP ( 'NONE', ( #216 ) ) ;
#81 = ORIENTED_EDGE ( 'NONE', *, *, #139, .F. ) ;
#82 = AXIS2_PLACEMENT_3D ( 'NONE', #160, #29, #143 ) ;
#83 = APPROVAL_STATUS ( 'not_yet_approved' ) ;
#84 = EDGE_LOOP ( 'NONE', ( #152 ) ) ;
#85 = DIRECTION ( 'NONE',  ( -3.491481338843133355E-15, 1.224646799147353207E-16, -1.000000000000000000 ) ) ;
#86 = ADVANCED_FACE ( 'NONE', ( #122, #220 ), #20, .T. ) ;
#87 = APPROVAL_DATE_TIME ( #47, #203 ) ;
#88 = APPLICATION_CONTEXT ( 'configuration controlled 3d designs of mechanical parts and assemblies' ) ;
#89 = CIRCLE ( 'NONE', #4, 0.7500000000000000000 ) ;
#90 = FACE_BOUND ( 'NONE', #84, .T. ) ;
#91 = DIRECTION ( 'NONE',  ( -3.491481338843133355E-15, 1.224646799147353207E-16, -1.000000000000000000 ) ) ;
#92 = FACE_OUTER_BOUND ( 'NONE', #65, .T. ) ;
#93 = DIRECTION ( 'NONE',  ( -4.275831445896958607E-31, -1.000000000000000000, -1.224646799147353207E-16 ) ) ;
#94 = VERTEX_POINT ( 'NONE', #8 ) ;
#95 = VERTEX_POINT ( 'NONE', #198 ) ;
#96 = COORDINATED_UNIVERSAL_TIME_OFFSET ( 1, 0, .AHEAD. ) ;
#97 = DATE_AND_TIME ( #77, #194 ) ;
#98 = LOCAL_TIME ( 10, 13, 14.00000000000000000, #187 ) ;
#99 = COORDINATED_UNIVERSAL_TIME_OFFSET ( 1, 0, .AHEAD. ) ;
#100 = DATE_AND_TIME ( #25, #98 ) ;
#101 = EDGE_LOOP ( 'NONE', ( #81 ) ) ;
#102 = DESIGN_CONTEXT ( 'detailed design', #3, 'design' ) ;
#103 = EDGE_LOOP ( 'NONE', ( #119 ) ) ;
#104 = CIRCLE ( 'NONE', #109, 0.5299999999999989164 ) ;
#105 = PERSON_AND_ORGANIZATION ( #121, #201 ) ;
#106 = ADVANCED_FACE ( 'NONE', ( #71, #90 ), #182, .T. ) ;
#107 = DIRECTION ( 'NONE',  ( 0.0000000000000000000, 1.000000000000000000, 0.0000000000000000000 ) ) ;
#108 = DIRECTION ( 'NONE',  ( 3.491481338843133355E-15, -1.224646799147353207E-16, 1.000000000000000000 ) ) ;
#109 = AXIS2_PLACEMENT_3D ( 'NONE', #15, #91, #46 ) ;
#110 = DIRECTION ( 'NONE',  ( 0.0000000000000000000, 1.000000000000000000, 0.0000000000000000000 ) ) ;
#111 = CARTESIAN_POINT ( 'NONE',  ( 3.142333204958820020E-14, 3.974363424053909250E-33, 9.000000000000000000 ) ) ;
#112 = PRODUCT_DEFINITION ( 'UNKNOWN', '', #49, #102 ) ;
#113 = CARTESIAN_POINT ( 'NONE',  ( 3.142333204958820020E-14, 0.5299999999999992495, 9.000000000000000000 ) ) ;
#114 = APPLICATION_PROTOCOL_DEFINITION ( 'international standard', 'config_control_design', 1994, #88 ) ;
#115 = AXIS2_PLACEMENT_3D ( 'NONE', #124, #196, #11 ) ;
#116 = PERSON_AND_ORGANIZATION ( #121, #201 ) ;
#117 = APPROVAL_DATE_TIME ( #165, #24 ) ;
#118 = LOCAL_TIME ( 10, 13, 14.00000000000000000, #96 ) ;
#119 = ORIENTED_EDGE ( 'NONE', *, *, #70, .T. ) ;
#120 = ORIENTED_EDGE ( 'NONE', *, *, #70, .F. ) ;
#121 = PERSON ( 'UNSPECIFIED', 'UNSPECIFIED', 'UNSPECIFIED', ('UNSPECIFIED'), ('UNSPECIFIED'), ('UNSPECIFIED') ) ;
#122 = FACE_BOUND ( 'NONE', #154, .T. ) ;
#123 = SHAPE_DEFINITION_REPRESENTATION ( #6, #155 ) ;
#124 = CARTESIAN_POINT ( 'NONE',  ( 1.068378076151378157E-15, -3.747365843494706368E-17, 0.3059956426705045529 ) ) ;
#125 = CIRCLE ( 'NONE', #28, 0.7499999999999975575 ) ;
#126 = CARTESIAN_POINT ( 'NONE',  ( 3.142333204958820020E-14, -1.102182119232617714E-15, 9.000000000000000000 ) ) ;
#127 = SECURITY_CLASSIFICATION ( '', '', #5 ) ;
#128 = CC_DESIGN_PERSON_AND_ORGANIZATION_ASSIGNMENT ( #150, #62, ( #127 ) ) ;
#129 = VERTEX_POINT ( 'NONE', #113 ) ;
#130 = CARTESIAN_POINT ( 'NONE',  ( 0.0000000000000000000, 0.0000000000000000000, 0.0000000000000000000 ) ) ;
#131 = MANIFOLD_SOLID_BREP ( 'Corps-Déplacer/Copier1[1]', #188 ) ;
#132 = MECHANICAL_CONTEXT ( 'NONE', #88, 'mechanical' ) ;
#133 = PRODUCT ( '958018', '958018', '', ( #132 ) ) ;
#134 = PERSON_AND_ORGANIZATION_ROLE ( 'creator' ) ;
#135 = EDGE_LOOP ( 'NONE', ( #40 ) ) ;
#136 = CIRCLE ( 'NONE', #157, 0.5300000000000003597 ) ;
#137 = ORIENTED_EDGE ( 'NONE', *, *, #31, .F. ) ;
#138 = EDGE_LOOP ( 'NONE', ( #202 ) ) ;
#139 = EDGE_CURVE ( 'NONE', #95, #95, #186, .T. ) ;
#140 = AXIS2_PLACEMENT_3D ( 'NONE', #158, #222, #107 ) ;
#141 = CYLINDRICAL_SURFACE ( 'NONE', #207, 0.5299999999999996936 ) ;
#142 = DATE_TIME_ROLE ( 'classification_date' ) ;
#143 = DIRECTION ( 'NONE',  ( 4.275831445896959482E-31, 1.000000000000000000, 1.224646799147353207E-16 ) ) ;
#144 = CARTESIAN_POINT ( 'NONE',  ( 1.047444401652940007E-13, -3.673940397442059178E-15, 30.00000000000000000 ) ) ;
#145 = CC_DESIGN_APPROVAL ( #24, ( #112 ) ) ;
#146 = PLANE ( 'NONE',  #171 ) ;
#147 = UNCERTAINTY_MEASURE_WITH_UNIT (LENGTH_MEASURE( 1.000000000000000082E-05 ), #76, 'distance_accuracy_value', 'NONE');
#148 = CARTESIAN_POINT ( 'NONE',  ( 1.047444401652940007E-13, 4.124339402320052999E-33, 30.00000000000000000 ) ) ;
#149 = LOCAL_TIME ( 10, 13, 14.00000000000000000, #43 ) ;
#150 = PERSON_AND_ORGANIZATION ( #121, #201 ) ;
#151 = DIRECTION ( 'NONE',  ( 1.000000000000000000, 0.0000000000000000000, 0.0000000000000000000 ) ) ;
#152 = ORIENTED_EDGE ( 'NONE', *, *, #139, .T. ) ;
#153 = AXIS2_PLACEMENT_3D ( 'NONE', #111, #18, #93 ) ;
#154 = EDGE_LOOP ( 'NONE', ( #172 ) ) ;
#155 = ADVANCED_BREP_SHAPE_REPRESENTATION ( '958018', ( #131, #50, #32 ), #54 ) ;
#156 = DIRECTION ( 'NONE',  ( 0.0000000000000000000, 1.000000000000000000, 0.0000000000000000000 ) ) ;
#157 = AXIS2_PLACEMENT_3D ( 'NONE', #126, #16, #195 ) ;
#158 = CARTESIAN_POINT ( 'NONE',  ( 1.047444401652940007E-13, -3.673940397442059178E-15, 30.00000000000000000 ) ) ;
#159 = CARTESIAN_POINT ( 'NONE',  ( 3.142333204958820020E-14, 3.974363424053909250E-33, 9.000000000000000000 ) ) ;
#160 = CARTESIAN_POINT ( 'NONE',  ( 0.0000000000000000000, 0.0000000000000000000, 0.0000000000000000000 ) ) ;
#161 = CC_DESIGN_DATE_AND_TIME_ASSIGNMENT ( #100, #142, ( #127 ) ) ;
#162 = FACE_OUTER_BOUND ( 'NONE', #80, .T. ) ;
#163 = FACE_OUTER_BOUND ( 'NONE', #101, .T. ) ;
#164 = EDGE_CURVE ( 'NONE', #57, #57, #136, .T. ) ;
#165 = DATE_AND_TIME ( #21, #218 ) ;
#166 = PERSON_AND_ORGANIZATION ( #121, #201 ) ;
#167 = AXIS2_PLACEMENT_3D ( 'NONE', #205, #85, #193 ) ;
#168 = PRODUCT_RELATED_PRODUCT_CATEGORY ( 'detail', '', ( #133 ) ) ;
#169 = CARTESIAN_POINT ( 'NONE',  ( 1.068378076151378354E-15, 0.5299999999999989164, 0.3059956426705046084 ) ) ;
#170 = EDGE_LOOP ( 'NONE', ( #200 ) ) ;
#171 = AXIS2_PLACEMENT_3D ( 'NONE', #159, #108, #51 ) ;
#172 = ORIENTED_EDGE ( 'NONE', *, *, #164, .F. ) ;
#173 = DIRECTION ( 'NONE',  ( -3.491481338843133355E-15, 1.224646799147353207E-16, -1.000000000000000000 ) ) ;
#174 = APPROVAL_ROLE ( '' ) ;
#175 = DIRECTION ( 'NONE',  ( -3.491481338843133355E-15, 1.224646799147353207E-16, -1.000000000000000000 ) ) ;
#176 = CC_DESIGN_SECURITY_CLASSIFICATION ( #127, ( #49 ) ) ;
#177 = DIRECTION ( 'NONE',  ( -3.491481338843133355E-15, 1.224646799147353207E-16, -1.000000000000000000 ) ) ;
#178 = CARTESIAN_POINT ( 'NONE',  ( 0.0000000000000000000, 0.0000000000000000000, 0.0000000000000000000 ) ) ;
#179 = VERTEX_POINT ( 'NONE', #19 ) ;
#180 = ADVANCED_FACE ( 'NONE', ( #162 ), #221, .F. ) ;
#181 = APPROVAL_ROLE ( '' ) ;
#182 = CONICAL_SURFACE ( 'NONE', #140, 0.5500000000000000444, 0.7853981633974512766 ) ;
#183 = PERSON_AND_ORGANIZATION_ROLE ( 'creator' ) ;
#184 = DATE_TIME_ROLE ( 'creation_date' ) ;
#185 = PERSON_AND_ORGANIZATION ( #121, #201 ) ;
#186 = CIRCLE ( 'NONE', #66, 0.5500000000000000444 ) ;
#187 = COORDINATED_UNIVERSAL_TIME_OFFSET ( 1, 0, .AHEAD. ) ;
#188 = CLOSED_SHELL ( 'NONE', ( #180, #86, #53, #106, #192 ) ) ;
#189 = ORIENTED_EDGE ( 'NONE', *, *, #26, .F. ) ;
#190 = CC_DESIGN_DATE_AND_TIME_ASSIGNMENT ( #199, #184, ( #112 ) ) ;
#191 = CARTESIAN_POINT ( 'NONE',  ( 3.275376512555028317E-14, -1.148847429736513941E-15, 9.381051177665153062 ) ) ;
#192 = ADVANCED_FACE ( 'NONE', ( #163 ), #74, .F. ) ;
#193 = DIRECTION ( 'NONE',  ( 0.0000000000000000000, 1.000000000000000000, 0.0000000000000000000 ) ) ;
#194 = LOCAL_TIME ( 10, 13, 14.00000000000000000, #99 ) ;
#195 = DIRECTION ( 'NONE',  ( 0.0000000000000000000, 1.000000000000000000, 0.0000000000000000000 ) ) ;
#196 = DIRECTION ( 'NONE',  ( 3.491481338843133355E-15, -1.224646799147353207E-16, 1.000000000000000000 ) ) ;
#197 = APPROVAL_STATUS ( 'not_yet_approved' ) ;
#198 = CARTESIAN_POINT ( 'NONE',  ( 1.047444401652940007E-13, 0.5499999999999963807, 30.00000000000000000 ) ) ;
#199 = DATE_AND_TIME ( #23, #118 ) ;
#200 = ORIENTED_EDGE ( 'NONE', *, *, #26, .T. ) ;
#201 = ORGANIZATION ( 'UNSPECIFIED', 'UNSPECIFIED', '' ) ;
#202 = ORIENTED_EDGE ( 'NONE', *, *, #33, .F. ) ;
#203 = APPROVAL ( #83, 'UNSPECIFIED' ) ;
#204 = DIRECTION ( 'NONE',  ( 4.275831445896958607E-31, 1.000000000000000000, 1.224646799147352961E-16 ) ) ;
#205 = CARTESIAN_POINT ( 'NONE',  ( 3.142333204958820020E-14, -1.102182119232617714E-15, 9.000000000000000000 ) ) ;
#206 = DIRECTION ( 'NONE',  ( 0.0000000000000000000, 1.000000000000000000, 0.0000000000000000000 ) ) ;
#207 = AXIS2_PLACEMENT_3D ( 'NONE', #178, #175, #204 ) ;
#208 = CARTESIAN_POINT ( 'NONE',  ( 3.275376512555028317E-14, -1.148847429736513941E-15, 9.381051177665153062 ) ) ;
#209 = APPROVAL_PERSON_ORGANIZATION ( #42, #24, #181 ) ;
#210 = DIRECTION ( 'NONE',  ( -3.491481338843133355E-15, 1.224646799147353207E-16, -1.000000000000000000 ) ) ;
#211 = APPROVAL ( #1, 'UNSPECIFIED' ) ;
#212 = CLOSED_SHELL ( 'NONE', ( #10, #58, #75 ) ) ;
#213 = DIRECTION ( 'NONE',  ( 0.0000000000000000000, 0.0000000000000000000, 1.000000000000000000 ) ) ;
#214 = PERSON_AND_ORGANIZATION_ROLE ( 'design_supplier' ) ;
#215 = CONICAL_SURFACE ( 'NONE', #115, 0.5299999999999989164, 1.047197551196592746 ) ;
#216 = ORIENTED_EDGE ( 'NONE', *, *, #164, .T. ) ;
#217 = CC_DESIGN_PERSON_AND_ORGANIZATION_ASSIGNMENT ( #116, #183, ( #112 ) ) ;
#218 = LOCAL_TIME ( 10, 13, 14.00000000000000000, #37 ) ;
#219 = FACE_OUTER_BOUND ( 'NONE', #45, .T. ) ;
#220 = FACE_OUTER_BOUND ( 'NONE', #63, .T. ) ;
#221 = PLANE ( 'NONE',  #153 ) ;
#222 = DIRECTION ( 'NONE',  ( -3.491481338843133355E-15, 1.224646799147353207E-16, -1.000000000000000000 ) ) ;
#223 = CIRCLE ( 'NONE', #167, 0.5300000000000003597 ) ;
ENDSEC;
END-ISO-10303-21;
