ISO-10303-21;
HEADER;
FILE_DESCRIPTION (( 'STEP AP203' ),
    '1' );
FILE_NAME ('958017.step',
    '2021-10-08T05:54:17',
    ( '' ),
    ( '' ),
    'SwSTEP 2.0',
    'SolidWorks 2019',
    '' );
FILE_SCHEMA (( 'CONFIG_CONTROL_DESIGN' ));
ENDSEC;

DATA;
#1 = ORIENTED_EDGE ( 'NONE', *, *, #182, .T. ) ;
#2 = CIRCLE ( 'NONE', #150, 0.5299999999999989164 ) ;
#3 = CLOSED_SHELL ( 'NONE', ( #200, #108, #189 ) ) ;
#4 = DIRECTION ( 'NONE',  ( 0.0000000000000000000, 1.000000000000000000, 0.0000000000000000000 ) ) ;
#5 = AXIS2_PLACEMENT_3D ( 'NONE', #111, #100, #198 ) ;
#6 = DIRECTION ( 'NONE',  ( -4.275831445896958607E-31, -1.000000000000000000, -1.224646799147353207E-16 ) ) ;
#7 = ADVANCED_FACE ( 'NONE', ( #207, #91 ), #101, .T. ) ;
#8 = DIRECTION ( 'NONE',  ( 0.0000000000000000000, 1.000000000000000000, 0.0000000000000000000 ) ) ;
#9 = CC_DESIGN_DATE_AND_TIME_ASSIGNMENT ( #92, #128, ( #67 ) ) ;
#10 = ADVANCED_BREP_SHAPE_REPRESENTATION ( '958017', ( #27, #177, #12 ), #213 ) ;
#11 = PLANE ( 'NONE',  #154 ) ;
#12 = AXIS2_PLACEMENT_3D ( 'NONE', #141, #52, #66 ) ;
#13 = CIRCLE ( 'NONE', #44, 0.5300000000000003597 ) ;
#14 = APPLICATION_PROTOCOL_DEFINITION ( 'international standard', 'config_control_design', 1994, #167 ) ;
#15 = APPROVAL ( #34, 'UNSPECIFIED' ) ;
#16 = APPROVAL_ROLE ( '' ) ;
#17 = EDGE_LOOP ( 'NONE', ( #120 ) ) ;
#18 = ORIENTED_EDGE ( 'NONE', *, *, #133, .F. ) ;
#19 = ORIENTED_EDGE ( 'NONE', *, *, #90, .F. ) ;
#20 = EDGE_LOOP ( 'NONE', ( #18 ) ) ;
#21 = CC_DESIGN_APPROVAL ( #15, ( #212 ) ) ;
#22 = APPROVAL ( #71, 'UNSPECIFIED' ) ;
#23 = EDGE_LOOP ( 'NONE', ( #19 ) ) ;
#24 = DESIGN_CONTEXT ( 'detailed design', #167, 'design' ) ;
#25 = CARTESIAN_POINT ( 'NONE',  ( 3.142333204958820020E-14, 0.5299999999999992495, 9.000000000000000000 ) ) ;
#26 = CARTESIAN_POINT ( 'NONE',  ( 3.142333204958820020E-14, 3.974363424053909250E-33, 9.000000000000000000 ) ) ;
#27 = MANIFOLD_SOLID_BREP ( 'Corps-Déplacer/Copier1[1]', #126 ) ;
#28 = ADVANCED_FACE ( 'NONE', ( #135, #134 ), #81, .T. ) ;
#29 = DIRECTION ( 'NONE',  ( 3.491481338843133355E-15, -1.224646799147353207E-16, 1.000000000000000000 ) ) ;
#30 = CC_DESIGN_PERSON_AND_ORGANIZATION_ASSIGNMENT ( #35, #122, ( #132 ) ) ;
#31 = AXIS2_PLACEMENT_3D ( 'NONE', #170, #129, #99 ) ;
#32 = CYLINDRICAL_SURFACE ( 'NONE', #192, 0.7499999999999987788 ) ;
#33 = DIRECTION ( 'NONE',  ( -3.491481338843133355E-15, 1.224646799147353207E-16, -1.000000000000000000 ) ) ;
#34 = APPROVAL_STATUS ( 'not_yet_approved' ) ;
#35 = PERSON_AND_ORGANIZATION ( #85, #93 ) ;
#36 = EDGE_LOOP ( 'NONE', ( #206 ) ) ;
#37 = CC_DESIGN_APPROVAL ( #22, ( #67 ) ) ;
#38 = EDGE_LOOP ( 'NONE', ( #164 ) ) ;
#39 = COORDINATED_UNIVERSAL_TIME_OFFSET ( 1, 0, .AHEAD. ) ;
#40 = ORIENTED_EDGE ( 'NONE', *, *, #133, .T. ) ;
#41 = CARTESIAN_POINT ( 'NONE',  ( 3.275376512555028317E-14, 0.7499999999999963363, 9.381051177665153062 ) ) ;
#42 = DIRECTION ( 'NONE',  ( 0.0000000000000000000, -1.000000000000000000, 0.0000000000000000000 ) ) ;
#43 = CC_DESIGN_APPROVAL ( #144, ( #132 ) ) ;
#44 = AXIS2_PLACEMENT_3D ( 'NONE', #77, #45, #8 ) ;
#45 = DIRECTION ( 'NONE',  ( -3.491481338843133355E-15, 1.224646799147353207E-16, -1.000000000000000000 ) ) ;
#46 = FACE_OUTER_BOUND ( 'NONE', #36, .T. ) ;
#47 = CC_DESIGN_PERSON_AND_ORGANIZATION_ASSIGNMENT ( #88, #159, ( #75 ) ) ;
#48 =( NAMED_UNIT ( * ) SI_UNIT ( $, .STERADIAN. ) SOLID_ANGLE_UNIT ( ) );
#49 = CARTESIAN_POINT ( 'NONE',  ( 1.040461438975253740E-13, 0.7499999999999964473, 29.80000000000000071 ) ) ;
#50 = LOCAL_TIME ( 7, 54, 17.00000000000000000, #203 ) ;
#51 = DATE_TIME_ROLE ( 'creation_date' ) ;
#52 = DIRECTION ( 'NONE',  ( 0.0000000000000000000, 0.0000000000000000000, 1.000000000000000000 ) ) ;
#53 = EDGE_LOOP ( 'NONE', ( #105 ) ) ;
#54 = CIRCLE ( 'NONE', #186, 0.7499999999999975575 ) ;
#55 = ADVANCED_FACE ( 'NONE', ( #46 ), #11, .F. ) ;
#56 = DIRECTION ( 'NONE',  ( 3.491481338843133355E-15, -1.224646799147353207E-16, 1.000000000000000000 ) ) ;
#57 = LOCAL_TIME ( 7, 54, 17.00000000000000000, #39 ) ;
#58 = AXIS2_PLACEMENT_3D ( 'NONE', #165, #72, #42 ) ;
#59 = FACE_OUTER_BOUND ( 'NONE', #89, .T. ) ;
#60 = DATE_AND_TIME ( #180, #57 ) ;
#61 = CARTESIAN_POINT ( 'NONE',  ( 0.0000000000000000000, 0.0000000000000000000, 0.0000000000000000000 ) ) ;
#62 = CARTESIAN_POINT ( 'NONE',  ( 3.275376512555028317E-14, -1.148847429736513941E-15, 9.381051177665153062 ) ) ;
#63 = FACE_OUTER_BOUND ( 'NONE', #38, .T. ) ;
#64 = PERSON_AND_ORGANIZATION ( #85, #93 ) ;
#65 = SECURITY_CLASSIFICATION_LEVEL ( 'unclassified' ) ;
#66 = DIRECTION ( 'NONE',  ( 1.000000000000000000, 0.0000000000000000000, 0.0000000000000000000 ) ) ;
#67 = SECURITY_CLASSIFICATION ( '', '', #65 ) ;
#68 = COORDINATED_UNIVERSAL_TIME_OFFSET ( 1, 0, .AHEAD. ) ;
#69 = PERSON_AND_ORGANIZATION_ROLE ( 'creator' ) ;
#70 = EDGE_LOOP ( 'NONE', ( #142 ) ) ;
#71 = APPROVAL_STATUS ( 'not_yet_approved' ) ;
#72 = DIRECTION ( 'NONE',  ( 3.491481338843133355E-15, -1.224646799147353207E-16, 1.000000000000000000 ) ) ;
#73 = FACE_OUTER_BOUND ( 'NONE', #193, .T. ) ;
#74 = CARTESIAN_POINT ( 'NONE',  ( 1.047444401652940007E-13, 4.124339402320052999E-33, 30.00000000000000000 ) ) ;
#75 = PRODUCT ( '958017', '958017', '', ( #119 ) ) ;
#76 = CONICAL_SURFACE ( 'NONE', #199, 0.5299999999999989164, 1.047197551196592746 ) ;
#77 = CARTESIAN_POINT ( 'NONE',  ( 3.142333204958820020E-14, -1.102182119232617714E-15, 9.000000000000000000 ) ) ;
#78 = FACE_OUTER_BOUND ( 'NONE', #179, .T. ) ;
#79 = CC_DESIGN_DATE_AND_TIME_ASSIGNMENT ( #205, #51, ( #212 ) ) ;
#80 = AXIS2_PLACEMENT_3D ( 'NONE', #115, #29, #172 ) ;
#81 = CONICAL_SURFACE ( 'NONE', #221, 0.5500000000000000444, 0.7853981633974516097 ) ;
#82 = PLANE ( 'NONE',  #162 ) ;
#83 = VERTEX_POINT ( 'NONE', #174 ) ;
#84 = CIRCLE ( 'NONE', #31, 0.5300000000000003597 ) ;
#85 = PERSON ( 'UNSPECIFIED', 'UNSPECIFIED', 'UNSPECIFIED', ('UNSPECIFIED'), ('UNSPECIFIED'), ('UNSPECIFIED') ) ;
#86 = APPLICATION_PROTOCOL_DEFINITION ( 'international standard', 'config_control_design', 1994, #137 ) ;
#87 = APPROVAL_DATE_TIME ( #175, #144 ) ;
#88 = PERSON_AND_ORGANIZATION ( #85, #93 ) ;
#89 = EDGE_LOOP ( 'NONE', ( #40 ) ) ;
#90 = EDGE_CURVE ( 'NONE', #195, #195, #54, .T. ) ;
#91 = FACE_OUTER_BOUND ( 'NONE', #123, .T. ) ;
#92 = DATE_AND_TIME ( #191, #50 ) ;
#93 = ORGANIZATION ( 'UNSPECIFIED', 'UNSPECIFIED', '' ) ;
#94 = EDGE_CURVE ( 'NONE', #181, #181, #84, .T. ) ;
#95 = VERTEX_POINT ( 'NONE', #168 ) ;
#96 = DIRECTION ( 'NONE',  ( 3.491481338843133355E-15, -1.224646799147353207E-16, 1.000000000000000000 ) ) ;
#97 = APPROVAL_PERSON_ORGANIZATION ( #155, #15, #16 ) ;
#98 = DIRECTION ( 'NONE',  ( -3.491481338843133355E-15, 1.224646799147353207E-16, -1.000000000000000000 ) ) ;
#99 = DIRECTION ( 'NONE',  ( 0.0000000000000000000, 1.000000000000000000, 0.0000000000000000000 ) ) ;
#100 = DIRECTION ( 'NONE',  ( -3.491481338843133355E-15, 1.224646799147353207E-16, -1.000000000000000000 ) ) ;
#101 = CONICAL_SURFACE ( 'NONE', #58, 0.7499999999999975575, 0.5235987755982925984 ) ;
#102 = CALENDAR_DATE ( 2021, 8, 10 ) ;
#103 = CC_DESIGN_PERSON_AND_ORGANIZATION_ASSIGNMENT ( #121, #69, ( #132 ) ) ;
#104 =( LENGTH_UNIT ( ) NAMED_UNIT ( * ) SI_UNIT ( .MILLI., .METRE. ) );
#105 = ORIENTED_EDGE ( 'NONE', *, *, #182, .F. ) ;
#106 = VERTEX_POINT ( 'NONE', #178 ) ;
#107 = LOCAL_TIME ( 7, 54, 17.00000000000000000, #223 ) ;
#108 = ADVANCED_FACE ( 'NONE', ( #145, #113 ), #127, .T. ) ;
#109 = ORIENTED_EDGE ( 'NONE', *, *, #147, .F. ) ;
#110 = PERSON_AND_ORGANIZATION ( #85, #93 ) ;
#111 = CARTESIAN_POINT ( 'NONE',  ( 1.047444401652940007E-13, -3.673940397442059178E-15, 30.00000000000000000 ) ) ;
#112 = DIRECTION ( 'NONE',  ( -3.491481338843133355E-15, 1.224646799147353207E-16, -1.000000000000000000 ) ) ;
#113 = FACE_OUTER_BOUND ( 'NONE', #17, .T. ) ;
#114 = DIRECTION ( 'NONE',  ( -3.491481338843133355E-15, 1.224646799147353207E-16, -1.000000000000000000 ) ) ;
#115 = CARTESIAN_POINT ( 'NONE',  ( 3.142333204958820020E-14, 3.974363424053909250E-33, 9.000000000000000000 ) ) ;
#116 = COORDINATED_UNIVERSAL_TIME_OFFSET ( 1, 0, .AHEAD. ) ;
#117 = CC_DESIGN_PERSON_AND_ORGANIZATION_ASSIGNMENT ( #153, #138, ( #212 ) ) ;
#118 = LOCAL_TIME ( 7, 54, 17.00000000000000000, #68 ) ;
#119 = MECHANICAL_CONTEXT ( 'NONE', #137, 'mechanical' ) ;
#120 = ORIENTED_EDGE ( 'NONE', *, *, #94, .T. ) ;
#121 = PERSON_AND_ORGANIZATION ( #85, #93 ) ;
#122 = PERSON_AND_ORGANIZATION_ROLE ( 'design_supplier' ) ;
#123 = EDGE_LOOP ( 'NONE', ( #161 ) ) ;
#124 = APPROVAL_DATE_TIME ( #60, #22 ) ;
#125 = DIRECTION ( 'NONE',  ( -3.633830083749509137E-31, -1.000000000000000000, -1.022832238193874226E-16 ) ) ;
#126 = CLOSED_SHELL ( 'NONE', ( #130, #7, #158, #28, #55 ) ) ;
#127 = CYLINDRICAL_SURFACE ( 'NONE', #143, 0.5299999999999996936 ) ;
#128 = DATE_TIME_ROLE ( 'classification_date' ) ;
#129 = DIRECTION ( 'NONE',  ( -3.491481338843133355E-15, 1.224646799147353207E-16, -1.000000000000000000 ) ) ;
#130 = ADVANCED_FACE ( 'NONE', ( #59 ), #82, .F. ) ;
#131 = PRODUCT_DEFINITION_SHAPE ( 'NONE', 'NONE',  #212 ) ;
#132 = PRODUCT_DEFINITION_FORMATION_WITH_SPECIFIED_SOURCE ( 'ANY', '', #75, .NOT_KNOWN. ) ;
#133 = EDGE_CURVE ( 'NONE', #95, #95, #13, .T. ) ;
#134 = FACE_BOUND ( 'NONE', #70, .T. ) ;
#135 = FACE_OUTER_BOUND ( 'NONE', #176, .T. ) ;
#136 = PERSON_AND_ORGANIZATION_ROLE ( 'classification_officer' ) ;
#137 = APPLICATION_CONTEXT ( 'configuration controlled 3d designs of mechanical parts and assemblies' ) ;
#138 = PERSON_AND_ORGANIZATION_ROLE ( 'creator' ) ;
#139 = AXIS2_PLACEMENT_3D ( 'NONE', #148, #114, #188 ) ;
#140 = APPROVAL_STATUS ( 'not_yet_approved' ) ;
#141 = CARTESIAN_POINT ( 'NONE',  ( 0.0000000000000000000, 0.0000000000000000000, 0.0000000000000000000 ) ) ;
#142 = ORIENTED_EDGE ( 'NONE', *, *, #166, .T. ) ;
#143 = AXIS2_PLACEMENT_3D ( 'NONE', #184, #33, #210 ) ;
#144 = APPROVAL ( #140, 'UNSPECIFIED' ) ;
#145 = FACE_OUTER_BOUND ( 'NONE', #53, .T. ) ;
#146 = DIRECTION ( 'NONE',  ( -3.491481338843133355E-15, 1.224646799147353207E-16, -1.000000000000000000 ) ) ;
#147 = EDGE_CURVE ( 'NONE', #173, #173, #214, .T. ) ;
#148 = CARTESIAN_POINT ( 'NONE',  ( 1.040461438975253740E-13, -3.649447461459112464E-15, 29.80000000000000071 ) ) ;
#149 = CC_DESIGN_PERSON_AND_ORGANIZATION_ASSIGNMENT ( #64, #136, ( #67 ) ) ;
#150 = AXIS2_PLACEMENT_3D ( 'NONE', #152, #98, #215 ) ;
#151 = DIRECTION ( 'NONE',  ( 4.275831445896959482E-31, 1.000000000000000000, 1.224646799147353207E-16 ) ) ;
#152 = CARTESIAN_POINT ( 'NONE',  ( 1.068378076151378157E-15, -3.747365843494706368E-17, 0.3059956426705045529 ) ) ;
#153 = PERSON_AND_ORGANIZATION ( #85, #93 ) ;
#154 = AXIS2_PLACEMENT_3D ( 'NONE', #74, #183, #169 ) ;
#155 = PERSON_AND_ORGANIZATION ( #85, #93 ) ;
#156 = PRODUCT_RELATED_PRODUCT_CATEGORY ( 'detail', '', ( #75 ) ) ;
#157 = APPROVAL_DATE_TIME ( #216, #15 ) ;
#158 = ADVANCED_FACE ( 'NONE', ( #211, #78 ), #32, .T. ) ;
#159 = PERSON_AND_ORGANIZATION_ROLE ( 'design_owner' ) ;
#160 = APPROVAL_PERSON_ORGANIZATION ( #110, #22, #197 ) ;
#161 = ORIENTED_EDGE ( 'NONE', *, *, #90, .T. ) ;
#162 = AXIS2_PLACEMENT_3D ( 'NONE', #26, #96, #6 ) ;
#163 = APPROVAL_ROLE ( '' ) ;
#164 = ORIENTED_EDGE ( 'NONE', *, *, #94, .F. ) ;
#165 = CARTESIAN_POINT ( 'NONE',  ( 3.275376512555028317E-14, -1.148847429736513941E-15, 9.381051177665153062 ) ) ;
#166 = EDGE_CURVE ( 'NONE', #83, #83, #196, .T. ) ;
#167 = APPLICATION_CONTEXT ( 'configuration controlled 3d designs of mechanical parts and assemblies' ) ;
#168 = CARTESIAN_POINT ( 'NONE',  ( 3.142333204958820020E-14, 0.5299999999999992495, 9.000000000000000000 ) ) ;
#169 = DIRECTION ( 'NONE',  ( 4.275831445896958607E-31, 1.000000000000000000, 1.224646799147353207E-16 ) ) ;
#170 = CARTESIAN_POINT ( 'NONE',  ( 3.142333204958820020E-14, -1.102182119232617714E-15, 9.000000000000000000 ) ) ;
#171 = DIRECTION ( 'NONE',  ( -3.491481338843133355E-15, 1.224646799147353207E-16, -1.000000000000000000 ) ) ;
#172 = DIRECTION ( 'NONE',  ( -4.275831445896958607E-31, -1.000000000000000000, -1.224646799147353207E-16 ) ) ;
#173 = VERTEX_POINT ( 'NONE', #49 ) ;
#174 = CARTESIAN_POINT ( 'NONE',  ( 1.047444401652940007E-13, 0.5499999999999963807, 30.00000000000000000 ) ) ;
#175 = DATE_AND_TIME ( #102, #107 ) ;
#176 = EDGE_LOOP ( 'NONE', ( #109 ) ) ;
#177 = MANIFOLD_SOLID_BREP ( 'Corps-Déplacer/Copier1[2]', #3 ) ;
#178 = CARTESIAN_POINT ( 'NONE',  ( 1.068378076151378354E-15, 0.5299999999999989164, 0.3059956426705046084 ) ) ;
#179 = EDGE_LOOP ( 'NONE', ( #222 ) ) ;
#180 = CALENDAR_DATE ( 2021, 8, 10 ) ;
#181 = VERTEX_POINT ( 'NONE', #25 ) ;
#182 = EDGE_CURVE ( 'NONE', #106, #106, #2, .T. ) ;
#183 = DIRECTION ( 'NONE',  ( -3.491481338843133355E-15, 1.224646799147353207E-16, -1.000000000000000000 ) ) ;
#184 = CARTESIAN_POINT ( 'NONE',  ( 0.0000000000000000000, 0.0000000000000000000, 0.0000000000000000000 ) ) ;
#185 = LOCAL_TIME ( 7, 54, 17.00000000000000000, #116 ) ;
#186 = AXIS2_PLACEMENT_3D ( 'NONE', #62, #146, #190 ) ;
#187 = CC_DESIGN_SECURITY_CLASSIFICATION ( #67, ( #132 ) ) ;
#188 = DIRECTION ( 'NONE',  ( 0.0000000000000000000, 1.000000000000000000, 0.0000000000000000000 ) ) ;
#189 = ADVANCED_FACE ( 'NONE', ( #63 ), #202, .T. ) ;
#190 = DIRECTION ( 'NONE',  ( 0.0000000000000000000, 1.000000000000000000, 0.0000000000000000000 ) ) ;
#191 = CALENDAR_DATE ( 2021, 8, 10 ) ;
#192 = AXIS2_PLACEMENT_3D ( 'NONE', #61, #171, #151 ) ;
#193 = EDGE_LOOP ( 'NONE', ( #1 ) ) ;
#194 = UNCERTAINTY_MEASURE_WITH_UNIT (LENGTH_MEASURE( 1.000000000000000082E-05 ), #104, 'distance_accuracy_value', 'NONE');
#195 = VERTEX_POINT ( 'NONE', #41 ) ;
#196 = CIRCLE ( 'NONE', #5, 0.5500000000000000444 ) ;
#197 = APPROVAL_ROLE ( '' ) ;
#198 = DIRECTION ( 'NONE',  ( 0.0000000000000000000, 1.000000000000000000, 0.0000000000000000000 ) ) ;
#199 = AXIS2_PLACEMENT_3D ( 'NONE', #209, #56, #125 ) ;
#200 = ADVANCED_FACE ( 'NONE', ( #73 ), #76, .T. ) ;
#201 = CARTESIAN_POINT ( 'NONE',  ( 1.047444401652940007E-13, -3.673940397442059178E-15, 30.00000000000000000 ) ) ;
#202 = PLANE ( 'NONE',  #80 ) ;
#203 = COORDINATED_UNIVERSAL_TIME_OFFSET ( 1, 0, .AHEAD. ) ;
#204 = PERSON_AND_ORGANIZATION ( #85, #93 ) ;
#205 = DATE_AND_TIME ( #218, #118 ) ;
#206 = ORIENTED_EDGE ( 'NONE', *, *, #166, .F. ) ;
#207 = FACE_BOUND ( 'NONE', #20, .T. ) ;
#208 = SHAPE_DEFINITION_REPRESENTATION ( #131, #10 ) ;
#209 = CARTESIAN_POINT ( 'NONE',  ( 1.068378076151378157E-15, -3.747365843494706368E-17, 0.3059956426705045529 ) ) ;
#210 = DIRECTION ( 'NONE',  ( 4.275831445896958607E-31, 1.000000000000000000, 1.224646799147352961E-16 ) ) ;
#211 = FACE_OUTER_BOUND ( 'NONE', #23, .T. ) ;
#212 = PRODUCT_DEFINITION ( 'UNKNOWN', '', #132, #24 ) ;
#213 =( GEOMETRIC_REPRESENTATION_CONTEXT ( 3 ) GLOBAL_UNCERTAINTY_ASSIGNED_CONTEXT ( ( #194 ) ) GLOBAL_UNIT_ASSIGNED_CONTEXT ( ( #104, #220, #48 ) ) REPRESENTATION_CONTEXT ( 'NONE', 'WORKASPACE' ) );
#214 = CIRCLE ( 'NONE', #139, 0.7500000000000001110 ) ;
#215 = DIRECTION ( 'NONE',  ( 3.633830083749509137E-31, 1.000000000000000000, 1.022832238193874226E-16 ) ) ;
#216 = DATE_AND_TIME ( #219, #185 ) ;
#217 = APPROVAL_PERSON_ORGANIZATION ( #204, #144, #163 ) ;
#218 = CALENDAR_DATE ( 2021, 8, 10 ) ;
#219 = CALENDAR_DATE ( 2021, 8, 10 ) ;
#220 =( NAMED_UNIT ( * ) PLANE_ANGLE_UNIT ( ) SI_UNIT ( $, .RADIAN. ) );
#221 = AXIS2_PLACEMENT_3D ( 'NONE', #201, #112, #4 ) ;
#222 = ORIENTED_EDGE ( 'NONE', *, *, #147, .T. ) ;
#223 = COORDINATED_UNIVERSAL_TIME_OFFSET ( 1, 0, .AHEAD. ) ;
ENDSEC;
END-ISO-10303-21;
