ISO-10303-21;
HEADER;
FILE_DESCRIPTION (( 'STEP AP203' ),
    '1' );
FILE_NAME ('958015.step',
    '2021-10-08T08:13:13',
    ( '' ),
    ( '' ),
    'SwSTEP 2.0',
    'SolidWorks 2019',
    '' );
FILE_SCHEMA (( 'CONFIG_CONTROL_DESIGN' ));
ENDSEC;

DATA;
#1 = APPROVAL_DATE_TIME ( #78, #77 ) ;
#2 = EDGE_LOOP ( 'NONE', ( #175 ) ) ;
#3 = DIRECTION ( 'NONE',  ( 0.0000000000000000000, 1.000000000000000000, 0.0000000000000000000 ) ) ;
#4 = EDGE_LOOP ( 'NONE', ( #211 ) ) ;
#5 = CARTESIAN_POINT ( 'NONE',  ( 1.047444401652940007E-13, 4.124339402320052999E-33, 30.00000000000000000 ) ) ;
#6 = ADVANCED_FACE ( 'NONE', ( #19 ), #84, .F. ) ;
#7 = APPROVAL_STATUS ( 'not_yet_approved' ) ;
#8 = CLOSED_SHELL ( 'NONE', ( #15, #63, #141 ) ) ;
#9 = DIRECTION ( 'NONE',  ( 3.703711431513922142E-31, 1.000000000000000000, 1.042502088928371630E-16 ) ) ;
#10 = CALENDAR_DATE ( 2021, 8, 10 ) ;
#11 = FACE_OUTER_BOUND ( 'NONE', #53, .T. ) ;
#12 = DIRECTION ( 'NONE',  ( 0.0000000000000000000, 1.000000000000000000, 0.0000000000000000000 ) ) ;
#13 = DIRECTION ( 'NONE',  ( -3.491481338843133355E-15, 1.224646799147353207E-16, -1.000000000000000000 ) ) ;
#14 = LOCAL_TIME ( 10, 13, 13.00000000000000000, #215 ) ;
#15 = ADVANCED_FACE ( 'NONE', ( #159 ), #25, .T. ) ;
#16 = CIRCLE ( 'NONE', #209, 0.7499999999999975575 ) ;
#17 = VERTEX_POINT ( 'NONE', #138 ) ;
#18 = APPROVAL_PERSON_ORGANIZATION ( #40, #115, #180 ) ;
#19 = FACE_OUTER_BOUND ( 'NONE', #31, .T. ) ;
#20 = ADVANCED_FACE ( 'NONE', ( #108, #196 ), #110, .T. ) ;
#21 = DIRECTION ( 'NONE',  ( 3.491481338843133355E-15, -1.224646799147353207E-16, 1.000000000000000000 ) ) ;
#22 = DIRECTION ( 'NONE',  ( -3.491481338843133355E-15, 1.224646799147353207E-16, -1.000000000000000000 ) ) ;
#23 = DIRECTION ( 'NONE',  ( -3.491481338843133355E-15, 1.224646799147353207E-16, -1.000000000000000000 ) ) ;
#24 = PERSON_AND_ORGANIZATION ( #104, #188 ) ;
#25 = CONICAL_SURFACE ( 'NONE', #99, 0.5199999999999990186, 1.047197551196592746 ) ;
#26 = DIRECTION ( 'NONE',  ( 4.275831445896958607E-31, 1.000000000000000000, 1.224646799147352961E-16 ) ) ;
#27 = DATE_TIME_ROLE ( 'classification_date' ) ;
#28 = FACE_OUTER_BOUND ( 'NONE', #210, .T. ) ;
#29 = CC_DESIGN_DATE_AND_TIME_ASSIGNMENT ( #80, #202, ( #94 ) ) ;
#30 = PRODUCT_DEFINITION_SHAPE ( 'NONE', 'NONE',  #94 ) ;
#31 = EDGE_LOOP ( 'NONE', ( #52 ) ) ;
#32 = DIRECTION ( 'NONE',  ( 4.275831445896958607E-31, 1.000000000000000000, 1.224646799147353207E-16 ) ) ;
#33 = PERSON_AND_ORGANIZATION_ROLE ( 'creator' ) ;
#34 = VERTEX_POINT ( 'NONE', #189 ) ;
#35 = ADVANCED_BREP_SHAPE_REPRESENTATION ( '958015', ( #187, #107, #82 ), #156 ) ;
#36 = ORIENTED_EDGE ( 'NONE', *, *, #122, .F. ) ;
#37 = VERTEX_POINT ( 'NONE', #64 ) ;
#38 = DIRECTION ( 'NONE',  ( -4.275831445896958607E-31, -1.000000000000000000, -1.224646799147353207E-16 ) ) ;
#39 = PERSON_AND_ORGANIZATION ( #104, #188 ) ;
#40 = PERSON_AND_ORGANIZATION ( #104, #188 ) ;
#41 = DIRECTION ( 'NONE',  ( -3.491481338843133355E-15, 1.224646799147353207E-16, -1.000000000000000000 ) ) ;
#42 = CARTESIAN_POINT ( 'NONE',  ( 1.047444401652940007E-13, -3.673940397442059178E-15, 30.00000000000000000 ) ) ;
#43 = CARTESIAN_POINT ( 'NONE',  ( 3.142333204958820020E-14, 3.899375434920813085E-33, 9.000000000000000000 ) ) ;
#44 = EDGE_CURVE ( 'NONE', #37, #37, #137, .T. ) ;
#45 = CIRCLE ( 'NONE', #203, 0.5199999999999997957 ) ;
#46 = DATE_AND_TIME ( #152, #176 ) ;
#47 = AXIS2_PLACEMENT_3D ( 'NONE', #93, #166, #178 ) ;
#48 = SECURITY_CLASSIFICATION ( '', '', #177 ) ;
#49 = EDGE_CURVE ( 'NONE', #171, #171, #45, .T. ) ;
#50 = AXIS2_PLACEMENT_3D ( 'NONE', #42, #165, #12 ) ;
#51 = CC_DESIGN_PERSON_AND_ORGANIZATION_ASSIGNMENT ( #65, #33, ( #94 ) ) ;
#52 = ORIENTED_EDGE ( 'NONE', *, *, #87, .T. ) ;
#53 = EDGE_LOOP ( 'NONE', ( #119 ) ) ;
#54 = DATE_AND_TIME ( #213, #14 ) ;
#55 = CARTESIAN_POINT ( 'NONE',  ( 1.047444401652940007E-13, 0.5499999999999963807, 30.00000000000000000 ) ) ;
#56 = PERSON_AND_ORGANIZATION ( #104, #188 ) ;
#57 = DIRECTION ( 'NONE',  ( -3.491481338843133355E-15, 1.224646799147353207E-16, -1.000000000000000000 ) ) ;
#58 = DIRECTION ( 'NONE',  ( 0.0000000000000000000, 1.000000000000000000, 0.0000000000000000000 ) ) ;
#59 = PLANE ( 'NONE',  #212 ) ;
#60 = APPROVAL ( #7, 'UNSPECIFIED' ) ;
#61 = EDGE_CURVE ( 'NONE', #155, #155, #95, .T. ) ;
#62 = AXIS2_PLACEMENT_3D ( 'NONE', #5, #22, #32 ) ;
#63 = ADVANCED_FACE ( 'NONE', ( #75, #11 ), #201, .T. ) ;
#64 = CARTESIAN_POINT ( 'NONE',  ( 1.048219999242861856E-15, 0.5199999999999990186, 0.3002221399786083045 ) ) ;
#65 = PERSON_AND_ORGANIZATION ( #104, #188 ) ;
#66 = ORIENTED_EDGE ( 'NONE', *, *, #44, .F. ) ;
#67 = CARTESIAN_POINT ( 'NONE',  ( 3.142333204958820020E-14, 0.5199999999999987965, 9.000000000000000000 ) ) ;
#68 = DIRECTION ( 'NONE',  ( -4.275831445896958607E-31, -1.000000000000000000, -1.224646799147353207E-16 ) ) ;
#69 = PLANE ( 'NONE',  #62 ) ;
#70 = CARTESIAN_POINT ( 'NONE',  ( 3.142333204958820020E-14, 3.899375434920813085E-33, 9.000000000000000000 ) ) ;
#71 = AXIS2_PLACEMENT_3D ( 'NONE', #70, #21, #68 ) ;
#72 = CARTESIAN_POINT ( 'NONE',  ( 1.047444401652940007E-13, -3.673940397442059178E-15, 30.00000000000000000 ) ) ;
#73 = CARTESIAN_POINT ( 'NONE',  ( 0.0000000000000000000, 0.0000000000000000000, 0.0000000000000000000 ) ) ;
#74 = PERSON_AND_ORGANIZATION_ROLE ( 'design_supplier' ) ;
#75 = FACE_OUTER_BOUND ( 'NONE', #100, .T. ) ;
#76 = CARTESIAN_POINT ( 'NONE',  ( 1.048219999242861658E-15, -3.676660827579712047E-17, 0.3002221399786082490 ) ) ;
#77 = APPROVAL ( #89, 'UNSPECIFIED' ) ;
#78 = DATE_AND_TIME ( #10, #149 ) ;
#79 = AXIS2_PLACEMENT_3D ( 'NONE', #91, #221, #58 ) ;
#80 = DATE_AND_TIME ( #207, #101 ) ;
#81 = EDGE_LOOP ( 'NONE', ( #139 ) ) ;
#82 = AXIS2_PLACEMENT_3D ( 'NONE', #194, #86, #160 ) ;
#83 = CC_DESIGN_APPROVAL ( #60, ( #150 ) ) ;
#84 = PLANE ( 'NONE',  #71 ) ;
#85 = UNCERTAINTY_MEASURE_WITH_UNIT (LENGTH_MEASURE( 1.000000000000000082E-05 ), #208, 'distance_accuracy_value', 'NONE');
#86 = DIRECTION ( 'NONE',  ( 0.0000000000000000000, 0.0000000000000000000, 1.000000000000000000 ) ) ;
#87 = EDGE_CURVE ( 'NONE', #17, #17, #168, .T. ) ;
#88 = CARTESIAN_POINT ( 'NONE',  ( 3.281423935627582694E-14, -1.150968580213963635E-15, 9.398371685740841031 ) ) ;
#89 = APPROVAL_STATUS ( 'not_yet_approved' ) ;
#90 = CARTESIAN_POINT ( 'NONE',  ( 3.142333204958820020E-14, -1.102182119232617714E-15, 9.000000000000000000 ) ) ;
#91 = CARTESIAN_POINT ( 'NONE',  ( 1.040461438975253740E-13, -3.649447461459112464E-15, 29.80000000000000071 ) ) ;
#92 = APPROVAL_STATUS ( 'not_yet_approved' ) ;
#93 = CARTESIAN_POINT ( 'NONE',  ( 3.281423935627582694E-14, -1.150968580213963635E-15, 9.398371685740841031 ) ) ;
#94 = PRODUCT_DEFINITION ( 'UNKNOWN', '', #150, #216 ) ;
#95 = CIRCLE ( 'NONE', #167, 0.5500000000000000444 ) ;
#96 = ORIENTED_EDGE ( 'NONE', *, *, #87, .F. ) ;
#97 = EDGE_LOOP ( 'NONE', ( #36 ) ) ;
#98 =( NAMED_UNIT ( * ) PLANE_ANGLE_UNIT ( ) SI_UNIT ( $, .RADIAN. ) );
#99 = AXIS2_PLACEMENT_3D ( 'NONE', #161, #131, #184 ) ;
#100 = EDGE_LOOP ( 'NONE', ( #66 ) ) ;
#101 = LOCAL_TIME ( 10, 13, 13.00000000000000000, #142 ) ;
#102 = CC_DESIGN_SECURITY_CLASSIFICATION ( #48, ( #150 ) ) ;
#103 = ORIENTED_EDGE ( 'NONE', *, *, #122, .T. ) ;
#104 = PERSON ( 'UNSPECIFIED', 'UNSPECIFIED', 'UNSPECIFIED', ('UNSPECIFIED'), ('UNSPECIFIED'), ('UNSPECIFIED') ) ;
#105 = DIRECTION ( 'NONE',  ( -3.491481338843133355E-15, 1.224646799147353207E-16, -1.000000000000000000 ) ) ;
#106 = PERSON_AND_ORGANIZATION_ROLE ( 'design_owner' ) ;
#107 = MANIFOLD_SOLID_BREP ( 'Corps-Déplacer/Copier1[2]', #8 ) ;
#108 = FACE_OUTER_BOUND ( 'NONE', #121, .T. ) ;
#109 = PRODUCT_RELATED_PRODUCT_CATEGORY ( 'detail', '', ( #117 ) ) ;
#110 = CYLINDRICAL_SURFACE ( 'NONE', #144, 0.7499999999999986677 ) ;
#111 = PERSON_AND_ORGANIZATION_ROLE ( 'classification_officer' ) ;
#112 = DIRECTION ( 'NONE',  ( 3.491481338843133355E-15, -1.224646799147353207E-16, 1.000000000000000000 ) ) ;
#113 = CONICAL_SURFACE ( 'NONE', #47, 0.7499999999999975575, 0.5235987755982938197 ) ;
#114 = APPROVAL_PERSON_ORGANIZATION ( #24, #77, #146 ) ;
#115 = APPROVAL ( #92, 'UNSPECIFIED' ) ;
#116 = LOCAL_TIME ( 10, 13, 13.00000000000000000, #195 ) ;
#117 = PRODUCT ( '958015', '958015', '', ( #124 ) ) ;
#118 = CONICAL_SURFACE ( 'NONE', #50, 0.5500000000000000444, 0.7853981633974512766 ) ;
#119 = ORIENTED_EDGE ( 'NONE', *, *, #49, .T. ) ;
#120 =( NAMED_UNIT ( * ) SI_UNIT ( $, .STERADIAN. ) SOLID_ANGLE_UNIT ( ) );
#121 = EDGE_LOOP ( 'NONE', ( #173 ) ) ;
#122 = EDGE_CURVE ( 'NONE', #136, #136, #134, .T. ) ;
#123 = ORIENTED_EDGE ( 'NONE', *, *, #44, .T. ) ;
#124 = MECHANICAL_CONTEXT ( 'NONE', #132, 'mechanical' ) ;
#125 = APPROVAL_DATE_TIME ( #54, #60 ) ;
#126 = EDGE_LOOP ( 'NONE', ( #103 ) ) ;
#127 = APPLICATION_PROTOCOL_DEFINITION ( 'international standard', 'config_control_design', 1994, #132 ) ;
#128 = DIRECTION ( 'NONE',  ( -3.491481338843133355E-15, 1.224646799147353207E-16, -1.000000000000000000 ) ) ;
#129 = APPROVAL_ROLE ( '' ) ;
#130 = FACE_OUTER_BOUND ( 'NONE', #97, .T. ) ;
#131 = DIRECTION ( 'NONE',  ( 3.491481338843133355E-15, -1.224646799147353207E-16, 1.000000000000000000 ) ) ;
#132 = APPLICATION_CONTEXT ( 'configuration controlled 3d designs of mechanical parts and assemblies' ) ;
#133 = ADVANCED_FACE ( 'NONE', ( #130, #200 ), #118, .T. ) ;
#134 = CIRCLE ( 'NONE', #79, 0.7500000000000000000 ) ;
#135 = APPROVAL_PERSON_ORGANIZATION ( #218, #60, #129 ) ;
#136 = VERTEX_POINT ( 'NONE', #157 ) ;
#137 = CIRCLE ( 'NONE', #153, 0.5199999999999990186 ) ;
#138 = CARTESIAN_POINT ( 'NONE',  ( 3.142333204958820020E-14, 0.5199999999999987965, 9.000000000000000000 ) ) ;
#139 = ORIENTED_EDGE ( 'NONE', *, *, #61, .F. ) ;
#140 = CC_DESIGN_DATE_AND_TIME_ASSIGNMENT ( #197, #27, ( #48 ) ) ;
#141 = ADVANCED_FACE ( 'NONE', ( #148 ), #59, .T. ) ;
#142 = COORDINATED_UNIVERSAL_TIME_OFFSET ( 1, 0, .AHEAD. ) ;
#143 = APPLICATION_CONTEXT ( 'configuration controlled 3d designs of mechanical parts and assemblies' ) ;
#144 = AXIS2_PLACEMENT_3D ( 'NONE', #219, #23, #198 ) ;
#145 = CARTESIAN_POINT ( 'NONE',  ( 3.142333204958820020E-14, -1.102182119232617714E-15, 9.000000000000000000 ) ) ;
#146 = APPROVAL_ROLE ( '' ) ;
#147 = DIRECTION ( 'NONE',  ( 0.0000000000000000000, 1.000000000000000000, 0.0000000000000000000 ) ) ;
#148 = FACE_OUTER_BOUND ( 'NONE', #2, .T. ) ;
#149 = LOCAL_TIME ( 10, 13, 13.00000000000000000, #162 ) ;
#150 = PRODUCT_DEFINITION_FORMATION_WITH_SPECIFIED_SOURCE ( 'ANY', '', #117, .NOT_KNOWN. ) ;
#151 = FACE_BOUND ( 'NONE', #190, .T. ) ;
#152 = CALENDAR_DATE ( 2021, 8, 10 ) ;
#153 = AXIS2_PLACEMENT_3D ( 'NONE', #76, #41, #9 ) ;
#154 = AXIS2_PLACEMENT_3D ( 'NONE', #73, #128, #26 ) ;
#155 = VERTEX_POINT ( 'NONE', #55 ) ;
#156 =( GEOMETRIC_REPRESENTATION_CONTEXT ( 3 ) GLOBAL_UNCERTAINTY_ASSIGNED_CONTEXT ( ( #85 ) ) GLOBAL_UNIT_ASSIGNED_CONTEXT ( ( #208, #98, #120 ) ) REPRESENTATION_CONTEXT ( 'NONE', 'WORKASPACE' ) );
#157 = CARTESIAN_POINT ( 'NONE',  ( 1.040461438975253740E-13, 0.7499999999999963363, 29.80000000000000071 ) ) ;
#158 = CC_DESIGN_PERSON_AND_ORGANIZATION_ASSIGNMENT ( #56, #74, ( #150 ) ) ;
#159 = FACE_OUTER_BOUND ( 'NONE', #193, .T. ) ;
#160 = DIRECTION ( 'NONE',  ( 1.000000000000000000, 0.0000000000000000000, 0.0000000000000000000 ) ) ;
#161 = CARTESIAN_POINT ( 'NONE',  ( 1.048219999242861658E-15, -3.676660827579712047E-17, 0.3002221399786082490 ) ) ;
#162 = COORDINATED_UNIVERSAL_TIME_OFFSET ( 1, 0, .AHEAD. ) ;
#163 = DIRECTION ( 'NONE',  ( 0.0000000000000000000, 1.000000000000000000, 0.0000000000000000000 ) ) ;
#164 = PERSON_AND_ORGANIZATION_ROLE ( 'creator' ) ;
#165 = DIRECTION ( 'NONE',  ( -3.491481338843133355E-15, 1.224646799147353207E-16, -1.000000000000000000 ) ) ;
#166 = DIRECTION ( 'NONE',  ( 3.491481338843133355E-15, -1.224646799147353207E-16, 1.000000000000000000 ) ) ;
#167 = AXIS2_PLACEMENT_3D ( 'NONE', #72, #13, #163 ) ;
#168 = CIRCLE ( 'NONE', #170, 0.5199999999999997957 ) ;
#169 = ADVANCED_FACE ( 'NONE', ( #151, #28 ), #113, .T. ) ;
#170 = AXIS2_PLACEMENT_3D ( 'NONE', #145, #105, #147 ) ;
#171 = VERTEX_POINT ( 'NONE', #67 ) ;
#172 = CC_DESIGN_PERSON_AND_ORGANIZATION_ASSIGNMENT ( #220, #111, ( #48 ) ) ;
#173 = ORIENTED_EDGE ( 'NONE', *, *, #205, .F. ) ;
#174 = CC_DESIGN_APPROVAL ( #77, ( #94 ) ) ;
#175 = ORIENTED_EDGE ( 'NONE', *, *, #49, .F. ) ;
#176 = LOCAL_TIME ( 10, 13, 13.00000000000000000, #186 ) ;
#177 = SECURITY_CLASSIFICATION_LEVEL ( 'unclassified' ) ;
#178 = DIRECTION ( 'NONE',  ( 0.0000000000000000000, -1.000000000000000000, 0.0000000000000000000 ) ) ;
#179 = APPLICATION_PROTOCOL_DEFINITION ( 'international standard', 'config_control_design', 1994, #143 ) ;
#180 = APPROVAL_ROLE ( '' ) ;
#181 = DIRECTION ( 'NONE',  ( -3.491481338843133355E-15, 1.224646799147353207E-16, -1.000000000000000000 ) ) ;
#182 = CALENDAR_DATE ( 2021, 8, 10 ) ;
#183 = CC_DESIGN_PERSON_AND_ORGANIZATION_ASSIGNMENT ( #199, #164, ( #150 ) ) ;
#184 = DIRECTION ( 'NONE',  ( -3.703711431513922142E-31, -1.000000000000000000, -1.042502088928371630E-16 ) ) ;
#185 = CC_DESIGN_PERSON_AND_ORGANIZATION_ASSIGNMENT ( #39, #106, ( #117 ) ) ;
#186 = COORDINATED_UNIVERSAL_TIME_OFFSET ( 1, 0, .AHEAD. ) ;
#187 = MANIFOLD_SOLID_BREP ( 'Corps-Déplacer/Copier1[1]', #222 ) ;
#188 = ORGANIZATION ( 'UNSPECIFIED', 'UNSPECIFIED', '' ) ;
#189 = CARTESIAN_POINT ( 'NONE',  ( 3.281423935627582694E-14, 0.7499999999999963363, 9.398371685740841031 ) ) ;
#190 = EDGE_LOOP ( 'NONE', ( #96 ) ) ;
#191 = FACE_OUTER_BOUND ( 'NONE', #81, .T. ) ;
#192 = ORIENTED_EDGE ( 'NONE', *, *, #205, .T. ) ;
#193 = EDGE_LOOP ( 'NONE', ( #123 ) ) ;
#194 = CARTESIAN_POINT ( 'NONE',  ( 0.0000000000000000000, 0.0000000000000000000, 0.0000000000000000000 ) ) ;
#195 = COORDINATED_UNIVERSAL_TIME_OFFSET ( 1, 0, .AHEAD. ) ;
#196 = FACE_OUTER_BOUND ( 'NONE', #126, .T. ) ;
#197 = DATE_AND_TIME ( #182, #116 ) ;
#198 = DIRECTION ( 'NONE',  ( 4.275831445896959482E-31, 1.000000000000000000, 1.224646799147353207E-16 ) ) ;
#199 = PERSON_AND_ORGANIZATION ( #104, #188 ) ;
#200 = FACE_BOUND ( 'NONE', #4, .T. ) ;
#201 = CYLINDRICAL_SURFACE ( 'NONE', #154, 0.5199999999999994627 ) ;
#202 = DATE_TIME_ROLE ( 'creation_date' ) ;
#203 = AXIS2_PLACEMENT_3D ( 'NONE', #90, #181, #217 ) ;
#204 = SHAPE_DEFINITION_REPRESENTATION ( #30, #35 ) ;
#205 = EDGE_CURVE ( 'NONE', #34, #34, #16, .T. ) ;
#206 = CC_DESIGN_APPROVAL ( #115, ( #48 ) ) ;
#207 = CALENDAR_DATE ( 2021, 8, 10 ) ;
#208 =( LENGTH_UNIT ( ) NAMED_UNIT ( * ) SI_UNIT ( .MILLI., .METRE. ) );
#209 = AXIS2_PLACEMENT_3D ( 'NONE', #88, #57, #3 ) ;
#210 = EDGE_LOOP ( 'NONE', ( #192 ) ) ;
#211 = ORIENTED_EDGE ( 'NONE', *, *, #61, .T. ) ;
#212 = AXIS2_PLACEMENT_3D ( 'NONE', #43, #112, #38 ) ;
#213 = CALENDAR_DATE ( 2021, 8, 10 ) ;
#214 = ADVANCED_FACE ( 'NONE', ( #191 ), #69, .F. ) ;
#215 = COORDINATED_UNIVERSAL_TIME_OFFSET ( 1, 0, .AHEAD. ) ;
#216 = DESIGN_CONTEXT ( 'detailed design', #143, 'design' ) ;
#217 = DIRECTION ( 'NONE',  ( 0.0000000000000000000, 1.000000000000000000, 0.0000000000000000000 ) ) ;
#218 = PERSON_AND_ORGANIZATION ( #104, #188 ) ;
#219 = CARTESIAN_POINT ( 'NONE',  ( 0.0000000000000000000, 0.0000000000000000000, 0.0000000000000000000 ) ) ;
#220 = PERSON_AND_ORGANIZATION ( #104, #188 ) ;
#221 = DIRECTION ( 'NONE',  ( -3.491481338843133355E-15, 1.224646799147353207E-16, -1.000000000000000000 ) ) ;
#222 = CLOSED_SHELL ( 'NONE', ( #6, #169, #20, #133, #214 ) ) ;
#223 = APPROVAL_DATE_TIME ( #46, #115 ) ;
ENDSEC;
END-ISO-10303-21;
