ISO-10303-21;
HEADER;
FILE_DESCRIPTION (( 'STEP AP203' ),
    '1' );
FILE_NAME ('958013.step',
    '2021-10-08T05:54:17',
    ( '' ),
    ( '' ),
    'SwSTEP 2.0',
    'SolidWorks 2019',
    '' );
FILE_SCHEMA (( 'CONFIG_CONTROL_DESIGN' ));
ENDSEC;

DATA;
#1 = ADVANCED_FACE ( 'NONE', ( #84 ), #152, .F. ) ;
#2 = PERSON ( 'UNSPECIFIED', 'UNSPECIFIED', 'UNSPECIFIED', ('UNSPECIFIED'), ('UNSPECIFIED'), ('UNSPECIFIED') ) ;
#3 = APPROVAL_ROLE ( '' ) ;
#4 = PRODUCT_DEFINITION_SHAPE ( 'NONE', 'NONE',  #19 ) ;
#5 = DATE_AND_TIME ( #132, #100 ) ;
#6 = VERTEX_POINT ( 'NONE', #38 ) ;
#7 = PERSON_AND_ORGANIZATION ( #2, #78 ) ;
#8 = EDGE_LOOP ( 'NONE', ( #142 ) ) ;
#9 = CC_DESIGN_PERSON_AND_ORGANIZATION_ASSIGNMENT ( #7, #118, ( #219 ) ) ;
#10 = EDGE_LOOP ( 'NONE', ( #208 ) ) ;
#11 = CONICAL_SURFACE ( 'NONE', #193, 0.7499999999999975575, 0.5235987755982938197 ) ;
#12 = CC_DESIGN_PERSON_AND_ORGANIZATION_ASSIGNMENT ( #214, #122, ( #19 ) ) ;
#13 = FACE_OUTER_BOUND ( 'NONE', #34, .T. ) ;
#14 = FACE_OUTER_BOUND ( 'NONE', #101, .T. ) ;
#15 = PLANE ( 'NONE',  #18 ) ;
#16 = DIRECTION ( 'NONE',  ( -3.491481338843133355E-15, 1.224646799147353207E-16, -1.000000000000000000 ) ) ;
#17 = FACE_OUTER_BOUND ( 'NONE', #104, .T. ) ;
#18 = AXIS2_PLACEMENT_3D ( 'NONE', #218, #16, #109 ) ;
#19 = PRODUCT_DEFINITION ( 'UNKNOWN', '', #219, #197 ) ;
#20 = DIRECTION ( 'NONE',  ( -3.491481338843133355E-15, 1.224646799147353207E-16, -1.000000000000000000 ) ) ;
#21 = APPLICATION_CONTEXT ( 'configuration controlled 3d designs of mechanical parts and assemblies' ) ;
#22 = CARTESIAN_POINT ( 'NONE',  ( 0.0000000000000000000, 0.0000000000000000000, 0.0000000000000000000 ) ) ;
#23 = COORDINATED_UNIVERSAL_TIME_OFFSET ( 1, 0, .AHEAD. ) ;
#24 = CIRCLE ( 'NONE', #33, 0.5199999999999997957 ) ;
#25 = EDGE_CURVE ( 'NONE', #190, #190, #49, .T. ) ;
#26 = EDGE_LOOP ( 'NONE', ( #139 ) ) ;
#27 = AXIS2_PLACEMENT_3D ( 'NONE', #22, #40, #158 ) ;
#28 = MANIFOLD_SOLID_BREP ( 'Corps-Déplacer/Copier1[2]', #192 ) ;
#29 = ORIENTED_EDGE ( 'NONE', *, *, #90, .F. ) ;
#30 = PERSON_AND_ORGANIZATION ( #2, #78 ) ;
#31 = DIRECTION ( 'NONE',  ( -3.491481338843133355E-15, 1.224646799147353207E-16, -1.000000000000000000 ) ) ;
#32 = DIRECTION ( 'NONE',  ( 0.0000000000000000000, 1.000000000000000000, 0.0000000000000000000 ) ) ;
#33 = AXIS2_PLACEMENT_3D ( 'NONE', #66, #220, #70 ) ;
#34 = EDGE_LOOP ( 'NONE', ( #202 ) ) ;
#35 = VERTEX_POINT ( 'NONE', #113 ) ;
#36 = CC_DESIGN_PERSON_AND_ORGANIZATION_ASSIGNMENT ( #30, #169, ( #219 ) ) ;
#37 = FACE_OUTER_BOUND ( 'NONE', #45, .T. ) ;
#38 = CARTESIAN_POINT ( 'NONE',  ( 1.048219999242861856E-15, 0.5199999999999990186, 0.3002221399786083045 ) ) ;
#39 = PRODUCT ( '958013', '958013', '', ( #174 ) ) ;
#40 = DIRECTION ( 'NONE',  ( -3.491481338843133355E-15, 1.224646799147353207E-16, -1.000000000000000000 ) ) ;
#41 = FACE_OUTER_BOUND ( 'NONE', #120, .T. ) ;
#42 = CC_DESIGN_SECURITY_CLASSIFICATION ( #128, ( #219 ) ) ;
#43 = DATE_AND_TIME ( #107, #115 ) ;
#44 = APPROVAL_ROLE ( '' ) ;
#45 = EDGE_LOOP ( 'NONE', ( #216 ) ) ;
#46 = ORIENTED_EDGE ( 'NONE', *, *, #144, .T. ) ;
#47 = ADVANCED_FACE ( 'NONE', ( #14 ), #15, .F. ) ;
#48 = APPROVAL_ROLE ( '' ) ;
#49 = CIRCLE ( 'NONE', #165, 0.7500000000000001110 ) ;
#50 = APPROVAL_DATE_TIME ( #140, #65 ) ;
#51 = FACE_BOUND ( 'NONE', #156, .T. ) ;
#52 = EDGE_CURVE ( 'NONE', #6, #6, #114, .T. ) ;
#53 = DIRECTION ( 'NONE',  ( -3.491481338843133355E-15, 1.224646799147353207E-16, -1.000000000000000000 ) ) ;
#54 = DIRECTION ( 'NONE',  ( 3.491481338843133355E-15, -1.224646799147353207E-16, 1.000000000000000000 ) ) ;
#55 =( GEOMETRIC_REPRESENTATION_CONTEXT ( 3 ) GLOBAL_UNCERTAINTY_ASSIGNED_CONTEXT ( ( #60 ) ) GLOBAL_UNIT_ASSIGNED_CONTEXT ( ( #176, #162, #191 ) ) REPRESENTATION_CONTEXT ( 'NONE', 'WORKASPACE' ) );
#56 = DIRECTION ( 'NONE',  ( 0.0000000000000000000, -1.000000000000000000, 0.0000000000000000000 ) ) ;
#57 = EDGE_CURVE ( 'NONE', #145, #145, #150, .T. ) ;
#58 = DIRECTION ( 'NONE',  ( 0.0000000000000000000, 0.0000000000000000000, 1.000000000000000000 ) ) ;
#59 = CLOSED_SHELL ( 'NONE', ( #1, #135, #121, #77, #47 ) ) ;
#60 = UNCERTAINTY_MEASURE_WITH_UNIT (LENGTH_MEASURE( 1.000000000000000082E-05 ), #176, 'distance_accuracy_value', 'NONE');
#61 = CALENDAR_DATE ( 2021, 8, 10 ) ;
#62 = CONICAL_SURFACE ( 'NONE', #153, 0.5199999999999990186, 1.047197551196592746 ) ;
#63 = APPROVAL_STATUS ( 'not_yet_approved' ) ;
#64 = CC_DESIGN_APPROVAL ( #119, ( #19 ) ) ;
#65 = APPROVAL ( #185, 'UNSPECIFIED' ) ;
#66 = CARTESIAN_POINT ( 'NONE',  ( 3.142333204958820020E-14, -1.102182119232617714E-15, 9.000000000000000000 ) ) ;
#67 = DATE_AND_TIME ( #61, #157 ) ;
#68 = CARTESIAN_POINT ( 'NONE',  ( 1.048219999242861658E-15, -3.676660827579712047E-17, 0.3002221399786082490 ) ) ;
#69 = AXIS2_PLACEMENT_3D ( 'NONE', #196, #20, #210 ) ;
#70 = DIRECTION ( 'NONE',  ( 0.0000000000000000000, 1.000000000000000000, 0.0000000000000000000 ) ) ;
#71 = EDGE_LOOP ( 'NONE', ( #141 ) ) ;
#72 = CARTESIAN_POINT ( 'NONE',  ( 3.142333204958820020E-14, 3.899375434920813085E-33, 9.000000000000000000 ) ) ;
#73 = AXIS2_PLACEMENT_3D ( 'NONE', #68, #155, #86 ) ;
#74 = CYLINDRICAL_SURFACE ( 'NONE', #27, 0.5199999999999994627 ) ;
#75 = DIRECTION ( 'NONE',  ( 3.491481338843133355E-15, -1.224646799147353207E-16, 1.000000000000000000 ) ) ;
#76 = CARTESIAN_POINT ( 'NONE',  ( 1.047444401652940007E-13, 0.5499999999999963807, 30.00000000000000000 ) ) ;
#77 = ADVANCED_FACE ( 'NONE', ( #154, #51 ), #85, .T. ) ;
#78 = ORGANIZATION ( 'UNSPECIFIED', 'UNSPECIFIED', '' ) ;
#79 = APPROVAL_DATE_TIME ( #43, #204 ) ;
#80 = EDGE_LOOP ( 'NONE', ( #82 ) ) ;
#81 = CC_DESIGN_APPROVAL ( #204, ( #128 ) ) ;
#82 = ORIENTED_EDGE ( 'NONE', *, *, #25, .T. ) ;
#83 = CC_DESIGN_PERSON_AND_ORGANIZATION_ASSIGNMENT ( #164, #179, ( #128 ) ) ;
#84 = FACE_OUTER_BOUND ( 'NONE', #88, .T. ) ;
#85 = CONICAL_SURFACE ( 'NONE', #212, 0.5500000000000000444, 0.7853981633974516097 ) ;
#86 = DIRECTION ( 'NONE',  ( 3.703711431513922142E-31, 1.000000000000000000, 1.042502088928371630E-16 ) ) ;
#87 = AXIS2_PLACEMENT_3D ( 'NONE', #177, #75, #129 ) ;
#88 = EDGE_LOOP ( 'NONE', ( #108 ) ) ;
#89 = FACE_OUTER_BOUND ( 'NONE', #8, .T. ) ;
#90 = EDGE_CURVE ( 'NONE', #195, #195, #180, .T. ) ;
#91 = AXIS2_PLACEMENT_3D ( 'NONE', #72, #186, #168 ) ;
#92 = APPROVAL_PERSON_ORGANIZATION ( #200, #204, #44 ) ;
#93 = PERSON_AND_ORGANIZATION_ROLE ( 'design_owner' ) ;
#94 = CC_DESIGN_PERSON_AND_ORGANIZATION_ASSIGNMENT ( #194, #93, ( #39 ) ) ;
#95 = COORDINATED_UNIVERSAL_TIME_OFFSET ( 1, 0, .AHEAD. ) ;
#96 = AXIS2_PLACEMENT_3D ( 'NONE', #127, #151, #203 ) ;
#97 = CARTESIAN_POINT ( 'NONE',  ( 1.040461438975253740E-13, 0.7499999999999964473, 29.80000000000000071 ) ) ;
#98 = EDGE_CURVE ( 'NONE', #35, #35, #24, .T. ) ;
#99 = SHAPE_DEFINITION_REPRESENTATION ( #4, #207 ) ;
#100 = LOCAL_TIME ( 7, 54, 17.00000000000000000, #95 ) ;
#101 = EDGE_LOOP ( 'NONE', ( #29 ) ) ;
#102 = PRODUCT_RELATED_PRODUCT_CATEGORY ( 'detail', '', ( #39 ) ) ;
#103 = ORIENTED_EDGE ( 'NONE', *, *, #90, .T. ) ;
#104 = EDGE_LOOP ( 'NONE', ( #106 ) ) ;
#105 = ADVANCED_FACE ( 'NONE', ( #126 ), #62, .T. ) ;
#106 = ORIENTED_EDGE ( 'NONE', *, *, #52, .F. ) ;
#107 = CALENDAR_DATE ( 2021, 8, 10 ) ;
#108 = ORIENTED_EDGE ( 'NONE', *, *, #98, .T. ) ;
#109 = DIRECTION ( 'NONE',  ( 4.275831445896958607E-31, 1.000000000000000000, 1.224646799147353207E-16 ) ) ;
#110 = MANIFOLD_SOLID_BREP ( 'Corps-Déplacer/Copier1[1]', #59 ) ;
#111 = CARTESIAN_POINT ( 'NONE',  ( 3.281423935627582694E-14, -1.150968580213963635E-15, 9.398371685740841031 ) ) ;
#112 = CARTESIAN_POINT ( 'NONE',  ( 3.142333204958820020E-14, 0.5199999999999987965, 9.000000000000000000 ) ) ;
#113 = CARTESIAN_POINT ( 'NONE',  ( 3.142333204958820020E-14, 0.5199999999999987965, 9.000000000000000000 ) ) ;
#114 = CIRCLE ( 'NONE', #73, 0.5199999999999990186 ) ;
#115 = LOCAL_TIME ( 7, 54, 17.00000000000000000, #134 ) ;
#116 = APPLICATION_PROTOCOL_DEFINITION ( 'international standard', 'config_control_design', 1994, #211 ) ;
#117 = VERTEX_POINT ( 'NONE', #112 ) ;
#118 = PERSON_AND_ORGANIZATION_ROLE ( 'creator' ) ;
#119 = APPROVAL ( #159, 'UNSPECIFIED' ) ;
#120 = EDGE_LOOP ( 'NONE', ( #46 ) ) ;
#121 = ADVANCED_FACE ( 'NONE', ( #13, #187 ), #221, .T. ) ;
#122 = PERSON_AND_ORGANIZATION_ROLE ( 'creator' ) ;
#123 = FACE_BOUND ( 'NONE', #26, .T. ) ;
#124 = COORDINATED_UNIVERSAL_TIME_OFFSET ( 1, 0, .AHEAD. ) ;
#125 = DIRECTION ( 'NONE',  ( 0.0000000000000000000, 1.000000000000000000, 0.0000000000000000000 ) ) ;
#126 = FACE_OUTER_BOUND ( 'NONE', #71, .T. ) ;
#127 = CARTESIAN_POINT ( 'NONE',  ( 0.0000000000000000000, 0.0000000000000000000, 0.0000000000000000000 ) ) ;
#128 = SECURITY_CLASSIFICATION ( '', '', #217 ) ;
#129 = DIRECTION ( 'NONE',  ( -4.275831445896958607E-31, -1.000000000000000000, -1.224646799147353207E-16 ) ) ;
#130 = DIRECTION ( 'NONE',  ( 1.000000000000000000, 0.0000000000000000000, 0.0000000000000000000 ) ) ;
#131 = CARTESIAN_POINT ( 'NONE',  ( 3.281423935627582694E-14, 0.7499999999999963363, 9.398371685740841031 ) ) ;
#132 = CALENDAR_DATE ( 2021, 8, 10 ) ;
#133 = PERSON_AND_ORGANIZATION ( #2, #78 ) ;
#134 = COORDINATED_UNIVERSAL_TIME_OFFSET ( 1, 0, .AHEAD. ) ;
#135 = ADVANCED_FACE ( 'NONE', ( #123, #89 ), #11, .T. ) ;
#136 = CC_DESIGN_APPROVAL ( #65, ( #219 ) ) ;
#137 = COORDINATED_UNIVERSAL_TIME_OFFSET ( 1, 0, .AHEAD. ) ;
#138 = PERSON_AND_ORGANIZATION ( #2, #78 ) ;
#139 = ORIENTED_EDGE ( 'NONE', *, *, #98, .F. ) ;
#140 = DATE_AND_TIME ( #182, #215 ) ;
#141 = ORIENTED_EDGE ( 'NONE', *, *, #52, .T. ) ;
#142 = ORIENTED_EDGE ( 'NONE', *, *, #57, .T. ) ;
#143 = CARTESIAN_POINT ( 'NONE',  ( 1.047444401652940007E-13, -3.673940397442059178E-15, 30.00000000000000000 ) ) ;
#144 = EDGE_CURVE ( 'NONE', #117, #117, #183, .T. ) ;
#145 = VERTEX_POINT ( 'NONE', #131 ) ;
#146 = DIRECTION ( 'NONE',  ( 3.491481338843133355E-15, -1.224646799147353207E-16, 1.000000000000000000 ) ) ;
#147 = AXIS2_PLACEMENT_3D ( 'NONE', #213, #58, #130 ) ;
#148 = APPROVAL_DATE_TIME ( #5, #119 ) ;
#149 = DATE_AND_TIME ( #163, #178 ) ;
#150 = CIRCLE ( 'NONE', #173, 0.7499999999999975575 ) ;
#151 = DIRECTION ( 'NONE',  ( -3.491481338843133355E-15, 1.224646799147353207E-16, -1.000000000000000000 ) ) ;
#152 = PLANE ( 'NONE',  #91 ) ;
#153 = AXIS2_PLACEMENT_3D ( 'NONE', #181, #54, #167 ) ;
#154 = FACE_OUTER_BOUND ( 'NONE', #10, .T. ) ;
#155 = DIRECTION ( 'NONE',  ( -3.491481338843133355E-15, 1.224646799147353207E-16, -1.000000000000000000 ) ) ;
#156 = EDGE_LOOP ( 'NONE', ( #103 ) ) ;
#157 = LOCAL_TIME ( 7, 54, 17.00000000000000000, #137 ) ;
#158 = DIRECTION ( 'NONE',  ( 4.275831445896958607E-31, 1.000000000000000000, 1.224646799147352961E-16 ) ) ;
#159 = APPROVAL_STATUS ( 'not_yet_approved' ) ;
#160 = APPROVAL_PERSON_ORGANIZATION ( #133, #119, #3 ) ;
#161 = CC_DESIGN_DATE_AND_TIME_ASSIGNMENT ( #149, #198, ( #128 ) ) ;
#162 =( NAMED_UNIT ( * ) PLANE_ANGLE_UNIT ( ) SI_UNIT ( $, .RADIAN. ) );
#163 = CALENDAR_DATE ( 2021, 8, 10 ) ;
#164 = PERSON_AND_ORGANIZATION ( #2, #78 ) ;
#165 = AXIS2_PLACEMENT_3D ( 'NONE', #206, #53, #32 ) ;
#166 = APPROVAL_PERSON_ORGANIZATION ( #138, #65, #48 ) ;
#167 = DIRECTION ( 'NONE',  ( -3.703711431513922142E-31, -1.000000000000000000, -1.042502088928371630E-16 ) ) ;
#168 = DIRECTION ( 'NONE',  ( -4.275831445896958607E-31, -1.000000000000000000, -1.224646799147353207E-16 ) ) ;
#169 = PERSON_AND_ORGANIZATION_ROLE ( 'design_supplier' ) ;
#170 = DIRECTION ( 'NONE',  ( 0.0000000000000000000, 1.000000000000000000, 0.0000000000000000000 ) ) ;
#171 = CARTESIAN_POINT ( 'NONE',  ( 1.047444401652940007E-13, -3.673940397442059178E-15, 30.00000000000000000 ) ) ;
#172 = DIRECTION ( 'NONE',  ( -3.491481338843133355E-15, 1.224646799147353207E-16, -1.000000000000000000 ) ) ;
#173 = AXIS2_PLACEMENT_3D ( 'NONE', #184, #31, #170 ) ;
#174 = MECHANICAL_CONTEXT ( 'NONE', #21, 'mechanical' ) ;
#175 = APPLICATION_PROTOCOL_DEFINITION ( 'international standard', 'config_control_design', 1994, #21 ) ;
#176 =( LENGTH_UNIT ( ) NAMED_UNIT ( * ) SI_UNIT ( .MILLI., .METRE. ) );
#177 = CARTESIAN_POINT ( 'NONE',  ( 3.142333204958820020E-14, 3.899375434920813085E-33, 9.000000000000000000 ) ) ;
#178 = LOCAL_TIME ( 7, 54, 17.00000000000000000, #124 ) ;
#179 = PERSON_AND_ORGANIZATION_ROLE ( 'classification_officer' ) ;
#180 = CIRCLE ( 'NONE', #188, 0.5500000000000000444 ) ;
#181 = CARTESIAN_POINT ( 'NONE',  ( 1.048219999242861658E-15, -3.676660827579712047E-17, 0.3002221399786082490 ) ) ;
#182 = CALENDAR_DATE ( 2021, 8, 10 ) ;
#183 = CIRCLE ( 'NONE', #69, 0.5199999999999997957 ) ;
#184 = CARTESIAN_POINT ( 'NONE',  ( 3.281423935627582694E-14, -1.150968580213963635E-15, 9.398371685740841031 ) ) ;
#185 = APPROVAL_STATUS ( 'not_yet_approved' ) ;
#186 = DIRECTION ( 'NONE',  ( 3.491481338843133355E-15, -1.224646799147353207E-16, 1.000000000000000000 ) ) ;
#187 = FACE_OUTER_BOUND ( 'NONE', #80, .T. ) ;
#188 = AXIS2_PLACEMENT_3D ( 'NONE', #171, #172, #189 ) ;
#189 = DIRECTION ( 'NONE',  ( 0.0000000000000000000, 1.000000000000000000, 0.0000000000000000000 ) ) ;
#190 = VERTEX_POINT ( 'NONE', #97 ) ;
#191 =( NAMED_UNIT ( * ) SI_UNIT ( $, .STERADIAN. ) SOLID_ANGLE_UNIT ( ) );
#192 = CLOSED_SHELL ( 'NONE', ( #105, #209, #201 ) ) ;
#193 = AXIS2_PLACEMENT_3D ( 'NONE', #111, #146, #56 ) ;
#194 = PERSON_AND_ORGANIZATION ( #2, #78 ) ;
#195 = VERTEX_POINT ( 'NONE', #76 ) ;
#196 = CARTESIAN_POINT ( 'NONE',  ( 3.142333204958820020E-14, -1.102182119232617714E-15, 9.000000000000000000 ) ) ;
#197 = DESIGN_CONTEXT ( 'detailed design', #211, 'design' ) ;
#198 = DATE_TIME_ROLE ( 'classification_date' ) ;
#199 = CC_DESIGN_DATE_AND_TIME_ASSIGNMENT ( #67, #205, ( #19 ) ) ;
#200 = PERSON_AND_ORGANIZATION ( #2, #78 ) ;
#201 = ADVANCED_FACE ( 'NONE', ( #37 ), #223, .T. ) ;
#202 = ORIENTED_EDGE ( 'NONE', *, *, #57, .F. ) ;
#203 = DIRECTION ( 'NONE',  ( 4.275831445896959482E-31, 1.000000000000000000, 1.224646799147353207E-16 ) ) ;
#204 = APPROVAL ( #63, 'UNSPECIFIED' ) ;
#205 = DATE_TIME_ROLE ( 'creation_date' ) ;
#206 = CARTESIAN_POINT ( 'NONE',  ( 1.040461438975253740E-13, -3.649447461459112464E-15, 29.80000000000000071 ) ) ;
#207 = ADVANCED_BREP_SHAPE_REPRESENTATION ( '958013', ( #110, #28, #147 ), #55 ) ;
#208 = ORIENTED_EDGE ( 'NONE', *, *, #25, .F. ) ;
#209 = ADVANCED_FACE ( 'NONE', ( #17, #41 ), #74, .T. ) ;
#210 = DIRECTION ( 'NONE',  ( 0.0000000000000000000, 1.000000000000000000, 0.0000000000000000000 ) ) ;
#211 = APPLICATION_CONTEXT ( 'configuration controlled 3d designs of mechanical parts and assemblies' ) ;
#212 = AXIS2_PLACEMENT_3D ( 'NONE', #143, #222, #125 ) ;
#213 = CARTESIAN_POINT ( 'NONE',  ( 0.0000000000000000000, 0.0000000000000000000, 0.0000000000000000000 ) ) ;
#214 = PERSON_AND_ORGANIZATION ( #2, #78 ) ;
#215 = LOCAL_TIME ( 7, 54, 17.00000000000000000, #23 ) ;
#216 = ORIENTED_EDGE ( 'NONE', *, *, #144, .F. ) ;
#217 = SECURITY_CLASSIFICATION_LEVEL ( 'unclassified' ) ;
#218 = CARTESIAN_POINT ( 'NONE',  ( 1.047444401652940007E-13, 4.124339402320052999E-33, 30.00000000000000000 ) ) ;
#219 = PRODUCT_DEFINITION_FORMATION_WITH_SPECIFIED_SOURCE ( 'ANY', '', #39, .NOT_KNOWN. ) ;
#220 = DIRECTION ( 'NONE',  ( -3.491481338843133355E-15, 1.224646799147353207E-16, -1.000000000000000000 ) ) ;
#221 = CYLINDRICAL_SURFACE ( 'NONE', #96, 0.7499999999999987788 ) ;
#222 = DIRECTION ( 'NONE',  ( -3.491481338843133355E-15, 1.224646799147353207E-16, -1.000000000000000000 ) ) ;
#223 = PLANE ( 'NONE',  #87 ) ;
ENDSEC;
END-ISO-10303-21;
