ISO-10303-21;
HEADER;
FILE_DESCRIPTION (( 'STEP AP203' ),
    '1' );
FILE_NAME ('958011.step',
    '2021-10-08T08:13:11',
    ( '' ),
    ( '' ),
    'SwSTEP 2.0',
    'SolidWorks 2019',
    '' );
FILE_SCHEMA (( 'CONFIG_CONTROL_DESIGN' ));
ENDSEC;

DATA;
#1 = CC_DESIGN_DATE_AND_TIME_ASSIGNMENT ( #189, #173, ( #170 ) ) ;
#2 = PERSON_AND_ORGANIZATION ( #159, #138 ) ;
#3 = PRODUCT_DEFINITION_SHAPE ( 'NONE', 'NONE',  #170 ) ;
#4 = EDGE_LOOP ( 'NONE', ( #214 ) ) ;
#5 = CARTESIAN_POINT ( 'NONE',  ( 3.284447647163860830E-14, -1.152029155452688679E-15, 9.407031939778686791 ) ) ;
#6 = AXIS2_PLACEMENT_3D ( 'NONE', #110, #47, #12 ) ;
#7 = CC_DESIGN_APPROVAL ( #193, ( #36 ) ) ;
#8 = FACE_OUTER_BOUND ( 'NONE', #29, .T. ) ;
#9 = EDGE_CURVE ( 'NONE', #219, #219, #120, .T. ) ;
#10 = FACE_OUTER_BOUND ( 'NONE', #4, .T. ) ;
#11 = DIRECTION ( 'NONE',  ( -3.491481338843133355E-15, 1.224646799147353207E-16, -1.000000000000000000 ) ) ;
#12 = DIRECTION ( 'NONE',  ( -4.275831445896958607E-31, -1.000000000000000000, -1.224646799147353207E-16 ) ) ;
#13 = DIRECTION ( 'NONE',  ( -4.275831445896958607E-31, -1.000000000000000000, -1.224646799147353207E-16 ) ) ;
#14 = CC_DESIGN_SECURITY_CLASSIFICATION ( #36, ( #19 ) ) ;
#15 = CYLINDRICAL_SURFACE ( 'NONE', #194, 0.7499999999999986677 ) ;
#16 = PERSON_AND_ORGANIZATION_ROLE ( 'design_owner' ) ;
#17 = APPROVAL_ROLE ( '' ) ;
#18 = EDGE_LOOP ( 'NONE', ( #69 ) ) ;
#19 = PRODUCT_DEFINITION_FORMATION_WITH_SPECIFIED_SOURCE ( 'ANY', '', #182, .NOT_KNOWN. ) ;
#20 = CARTESIAN_POINT ( 'NONE',  ( 3.284447647163860830E-14, -1.152029155452688679E-15, 9.407031939778686791 ) ) ;
#21 = SECURITY_CLASSIFICATION_LEVEL ( 'unclassified' ) ;
#22 = EDGE_CURVE ( 'NONE', #68, #68, #144, .T. ) ;
#23 = PERSON_AND_ORGANIZATION_ROLE ( 'design_supplier' ) ;
#24 = ORIENTED_EDGE ( 'NONE', *, *, #22, .T. ) ;
#25 = APPLICATION_PROTOCOL_DEFINITION ( 'international standard', 'config_control_design', 1994, #206 ) ;
#26 = CIRCLE ( 'NONE', #81, 0.5149999999999992362 ) ;
#27 = DESIGN_CONTEXT ( 'detailed design', #206, 'design' ) ;
#28 = EDGE_LOOP ( 'NONE', ( #74 ) ) ;
#29 = EDGE_LOOP ( 'NONE', ( #104 ) ) ;
#30 = EDGE_CURVE ( 'NONE', #199, #199, #58, .T. ) ;
#31 = CONICAL_SURFACE ( 'NONE', #176, 0.5500000000000000444, 0.7853981633974512766 ) ;
#32 = FACE_OUTER_BOUND ( 'NONE', #197, .T. ) ;
#33 = DIRECTION ( 'NONE',  ( -3.491481338843133355E-15, 1.224646799147353207E-16, -1.000000000000000000 ) ) ;
#34 = CALENDAR_DATE ( 2021, 8, 10 ) ;
#35 = EDGE_CURVE ( 'NONE', #221, #221, #26, .T. ) ;
#36 = SECURITY_CLASSIFICATION ( '', '', #21 ) ;
#37 = EDGE_LOOP ( 'NONE', ( #195 ) ) ;
#38 = COORDINATED_UNIVERSAL_TIME_OFFSET ( 1, 0, .AHEAD. ) ;
#39 = CARTESIAN_POINT ( 'NONE',  ( 3.142333204958820020E-14, -1.102182119232617714E-15, 9.000000000000000000 ) ) ;
#40 = CARTESIAN_POINT ( 'NONE',  ( 0.0000000000000000000, 0.0000000000000000000, 0.0000000000000000000 ) ) ;
#41 = ORIENTED_EDGE ( 'NONE', *, *, #57, .T. ) ;
#42 = DIRECTION ( 'NONE',  ( -3.491481338843133355E-15, 1.224646799147353207E-16, -1.000000000000000000 ) ) ;
#43 = DIRECTION ( 'NONE',  ( 3.739669794926677069E-31, 1.000000000000000000, 1.052623468432530128E-16 ) ) ;
#44 = AXIS2_PLACEMENT_3D ( 'NONE', #61, #11, #102 ) ;
#45 = CARTESIAN_POINT ( 'NONE',  ( 3.142333204958820020E-14, 3.861881440354271161E-33, 9.000000000000000000 ) ) ;
#46 = ADVANCED_FACE ( 'NONE', ( #101, #160 ), #215, .T. ) ;
#47 = DIRECTION ( 'NONE',  ( 3.491481338843133355E-15, -1.224646799147353207E-16, 1.000000000000000000 ) ) ;
#48 = CIRCLE ( 'NONE', #118, 0.5150000000000004574 ) ;
#49 = PERSON_AND_ORGANIZATION_ROLE ( 'creator' ) ;
#50 = DATE_AND_TIME ( #34, #72 ) ;
#51 = CC_DESIGN_PERSON_AND_ORGANIZATION_ASSIGNMENT ( #116, #190, ( #36 ) ) ;
#52 = APPROVAL_STATUS ( 'not_yet_approved' ) ;
#53 = COORDINATED_UNIVERSAL_TIME_OFFSET ( 1, 0, .AHEAD. ) ;
#54 = ADVANCED_FACE ( 'NONE', ( #88, #90 ), #31, .T. ) ;
#55 = DATE_TIME_ROLE ( 'classification_date' ) ;
#56 = CARTESIAN_POINT ( 'NONE',  ( 1.047444401652940007E-13, -3.673940397442059178E-15, 30.00000000000000000 ) ) ;
#57 = EDGE_CURVE ( 'NONE', #202, #202, #48, .T. ) ;
#58 = CIRCLE ( 'NONE', #186, 0.7499999999999975575 ) ;
#59 = CIRCLE ( 'NONE', #178, 0.5500000000000000444 ) ;
#60 = FACE_OUTER_BOUND ( 'NONE', #98, .T. ) ;
#61 = CARTESIAN_POINT ( 'NONE',  ( 1.040461438975253740E-13, -3.649447461459112464E-15, 29.80000000000000071 ) ) ;
#62 =( NAMED_UNIT ( * ) SI_UNIT ( $, .STERADIAN. ) SOLID_ANGLE_UNIT ( ) );
#63 = PLANE ( 'NONE',  #156 ) ;
#64 = DIRECTION ( 'NONE',  ( -3.491481338843133355E-15, 1.224646799147353207E-16, -1.000000000000000000 ) ) ;
#65 = LOCAL_TIME ( 10, 13, 11.00000000000000000, #208 ) ;
#66 = VERTEX_POINT ( 'NONE', #154 ) ;
#67 = ADVANCED_FACE ( 'NONE', ( #60 ), #63, .F. ) ;
#68 = VERTEX_POINT ( 'NONE', #153 ) ;
#69 = ORIENTED_EDGE ( 'NONE', *, *, #9, .F. ) ;
#70 = DIRECTION ( 'NONE',  ( -3.491481338843133355E-15, 1.224646799147353207E-16, -1.000000000000000000 ) ) ;
#71 = MECHANICAL_CONTEXT ( 'NONE', #106, 'mechanical' ) ;
#72 = LOCAL_TIME ( 10, 13, 11.00000000000000000, #38 ) ;
#73 = PERSON_AND_ORGANIZATION ( #159, #138 ) ;
#74 = ORIENTED_EDGE ( 'NONE', *, *, #212, .T. ) ;
#75 = DIRECTION ( 'NONE',  ( -3.491481338843133355E-15, 1.224646799147353207E-16, -1.000000000000000000 ) ) ;
#76 = APPROVAL_ROLE ( '' ) ;
#77 = CC_DESIGN_PERSON_AND_ORGANIZATION_ASSIGNMENT ( #73, #49, ( #170 ) ) ;
#78 = APPROVAL_PERSON_ORGANIZATION ( #133, #205, #76 ) ;
#79 = DIRECTION ( 'NONE',  ( 3.491481338843133355E-15, -1.224646799147353207E-16, 1.000000000000000000 ) ) ;
#80 = EDGE_LOOP ( 'NONE', ( #213 ) ) ;
#81 = AXIS2_PLACEMENT_3D ( 'NONE', #141, #64, #43 ) ;
#82 = DIRECTION ( 'NONE',  ( 0.0000000000000000000, 1.000000000000000000, 0.0000000000000000000 ) ) ;
#83 = CARTESIAN_POINT ( 'NONE',  ( 3.284447647163860830E-14, 0.7499999999999963363, 9.407031939778686791 ) ) ;
#84 = ADVANCED_FACE ( 'NONE', ( #151, #181 ), #137, .T. ) ;
#85 = CLOSED_SHELL ( 'NONE', ( #108, #46, #112, #54, #67 ) ) ;
#86 = LOCAL_TIME ( 10, 13, 11.00000000000000000, #94 ) ;
#87 = DIRECTION ( 'NONE',  ( 4.275831445896959482E-31, 1.000000000000000000, 1.224646799147353207E-16 ) ) ;
#88 = FACE_OUTER_BOUND ( 'NONE', #103, .T. ) ;
#89 = ORIENTED_EDGE ( 'NONE', *, *, #9, .T. ) ;
#90 = FACE_BOUND ( 'NONE', #28, .T. ) ;
#91 = COORDINATED_UNIVERSAL_TIME_OFFSET ( 1, 0, .AHEAD. ) ;
#92 = EDGE_LOOP ( 'NONE', ( #41 ) ) ;
#93 = AXIS2_PLACEMENT_3D ( 'NONE', #40, #33, #203 ) ;
#94 = COORDINATED_UNIVERSAL_TIME_OFFSET ( 1, 0, .AHEAD. ) ;
#95 = DATE_AND_TIME ( #145, #192 ) ;
#96 = CC_DESIGN_PERSON_AND_ORGANIZATION_ASSIGNMENT ( #2, #23, ( #19 ) ) ;
#97 =( GEOMETRIC_REPRESENTATION_CONTEXT ( 3 ) GLOBAL_UNCERTAINTY_ASSIGNED_CONTEXT ( ( #117 ) ) GLOBAL_UNIT_ASSIGNED_CONTEXT ( ( #127, #135, #62 ) ) REPRESENTATION_CONTEXT ( 'NONE', 'WORKASPACE' ) );
#98 = EDGE_LOOP ( 'NONE', ( #161 ) ) ;
#99 = ADVANCED_FACE ( 'NONE', ( #139 ), #217, .T. ) ;
#100 = ORIENTED_EDGE ( 'NONE', *, *, #57, .F. ) ;
#101 = FACE_BOUND ( 'NONE', #18, .T. ) ;
#102 = DIRECTION ( 'NONE',  ( 0.0000000000000000000, 1.000000000000000000, 0.0000000000000000000 ) ) ;
#103 = EDGE_LOOP ( 'NONE', ( #220 ) ) ;
#104 = ORIENTED_EDGE ( 'NONE', *, *, #35, .T. ) ;
#105 = AXIS2_PLACEMENT_3D ( 'NONE', #39, #136, #149 ) ;
#106 = APPLICATION_CONTEXT ( 'configuration controlled 3d designs of mechanical parts and assemblies' ) ;
#107 = APPLICATION_PROTOCOL_DEFINITION ( 'international standard', 'config_control_design', 1994, #106 ) ;
#108 = ADVANCED_FACE ( 'NONE', ( #168 ), #185, .F. ) ;
#109 = DIRECTION ( 'NONE',  ( 3.491481338843133355E-15, -1.224646799147353207E-16, 1.000000000000000000 ) ) ;
#110 = CARTESIAN_POINT ( 'NONE',  ( 3.142333204958820020E-14, 3.861881440354271161E-33, 9.000000000000000000 ) ) ;
#111 = LOCAL_TIME ( 10, 13, 11.00000000000000000, #53 ) ;
#112 = ADVANCED_FACE ( 'NONE', ( #10, #32 ), #15, .T. ) ;
#113 = PERSON_AND_ORGANIZATION ( #159, #138 ) ;
#114 = MANIFOLD_SOLID_BREP ( 'Corps-Déplacer/Copier1[2]', #123 ) ;
#115 = CALENDAR_DATE ( 2021, 8, 10 ) ;
#116 = PERSON_AND_ORGANIZATION ( #159, #138 ) ;
#117 = UNCERTAINTY_MEASURE_WITH_UNIT (LENGTH_MEASURE( 1.000000000000000082E-05 ), #127, 'distance_accuracy_value', 'NONE');
#118 = AXIS2_PLACEMENT_3D ( 'NONE', #122, #126, #125 ) ;
#119 = CONICAL_SURFACE ( 'NONE', #200, 0.5149999999999992362, 1.047197551196592746 ) ;
#120 = CIRCLE ( 'NONE', #105, 0.5150000000000004574 ) ;
#121 = DIRECTION ( 'NONE',  ( 3.491481338843133355E-15, -1.224646799147353207E-16, 1.000000000000000000 ) ) ;
#122 = CARTESIAN_POINT ( 'NONE',  ( 3.142333204958820020E-14, -1.102182119232617714E-15, 9.000000000000000000 ) ) ;
#123 = CLOSED_SHELL ( 'NONE', ( #183, #84, #99 ) ) ;
#124 = EDGE_LOOP ( 'NONE', ( #89 ) ) ;
#125 = DIRECTION ( 'NONE',  ( 0.0000000000000000000, 1.000000000000000000, 0.0000000000000000000 ) ) ;
#126 = DIRECTION ( 'NONE',  ( -3.491481338843133355E-15, 1.224646799147353207E-16, -1.000000000000000000 ) ) ;
#127 =( LENGTH_UNIT ( ) NAMED_UNIT ( * ) SI_UNIT ( .MILLI., .METRE. ) );
#128 = CC_DESIGN_APPROVAL ( #205, ( #170 ) ) ;
#129 = CALENDAR_DATE ( 2021, 8, 10 ) ;
#130 = PERSON_AND_ORGANIZATION_ROLE ( 'creator' ) ;
#131 = DIRECTION ( 'NONE',  ( 0.0000000000000000000, 1.000000000000000000, 0.0000000000000000000 ) ) ;
#132 = APPROVAL_ROLE ( '' ) ;
#133 = PERSON_AND_ORGANIZATION ( #159, #138 ) ;
#134 = DIRECTION ( 'NONE',  ( 0.0000000000000000000, 0.0000000000000000000, 1.000000000000000000 ) ) ;
#135 =( NAMED_UNIT ( * ) PLANE_ANGLE_UNIT ( ) SI_UNIT ( $, .RADIAN. ) );
#136 = DIRECTION ( 'NONE',  ( -3.491481338843133355E-15, 1.224646799147353207E-16, -1.000000000000000000 ) ) ;
#137 = CYLINDRICAL_SURFACE ( 'NONE', #93, 0.5149999999999997913 ) ;
#138 = ORGANIZATION ( 'UNSPECIFIED', 'UNSPECIFIED', '' ) ;
#139 = FACE_OUTER_BOUND ( 'NONE', #146, .T. ) ;
#140 = DIRECTION ( 'NONE',  ( 4.275831445896958607E-31, 1.000000000000000000, 1.224646799147353207E-16 ) ) ;
#141 = CARTESIAN_POINT ( 'NONE',  ( 1.038140960788603705E-15, -3.641308319622216120E-17, 0.2973353886326601803 ) ) ;
#142 = DATE_AND_TIME ( #129, #111 ) ;
#143 = APPROVAL_STATUS ( 'not_yet_approved' ) ;
#144 = CIRCLE ( 'NONE', #44, 0.7500000000000000000 ) ;
#145 = CALENDAR_DATE ( 2021, 8, 10 ) ;
#146 = EDGE_LOOP ( 'NONE', ( #100 ) ) ;
#147 = PRODUCT_RELATED_PRODUCT_CATEGORY ( 'detail', '', ( #182 ) ) ;
#148 = AXIS2_PLACEMENT_3D ( 'NONE', #5, #79, #166 ) ;
#149 = DIRECTION ( 'NONE',  ( 0.0000000000000000000, 1.000000000000000000, 0.0000000000000000000 ) ) ;
#150 = CARTESIAN_POINT ( 'NONE',  ( 3.142333204958820020E-14, 0.5149999999999993472, 9.000000000000000000 ) ) ;
#151 = FACE_OUTER_BOUND ( 'NONE', #37, .T. ) ;
#152 = CARTESIAN_POINT ( 'NONE',  ( 1.047444401652940007E-13, -3.673940397442059178E-15, 30.00000000000000000 ) ) ;
#153 = CARTESIAN_POINT ( 'NONE',  ( 1.040461438975253740E-13, 0.7499999999999963363, 29.80000000000000071 ) ) ;
#154 = CARTESIAN_POINT ( 'NONE',  ( 1.047444401652940007E-13, 0.5499999999999963807, 30.00000000000000000 ) ) ;
#155 = SHAPE_DEFINITION_REPRESENTATION ( #3, #207 ) ;
#156 = AXIS2_PLACEMENT_3D ( 'NONE', #196, #184, #140 ) ;
#157 = CC_DESIGN_APPROVAL ( #218, ( #19 ) ) ;
#158 = APPROVAL_PERSON_ORGANIZATION ( #209, #218, #132 ) ;
#159 = PERSON ( 'UNSPECIFIED', 'UNSPECIFIED', 'UNSPECIFIED', ('UNSPECIFIED'), ('UNSPECIFIED'), ('UNSPECIFIED') ) ;
#160 = FACE_OUTER_BOUND ( 'NONE', #80, .T. ) ;
#161 = ORIENTED_EDGE ( 'NONE', *, *, #212, .F. ) ;
#162 = CC_DESIGN_PERSON_AND_ORGANIZATION_ASSIGNMENT ( #113, #130, ( #19 ) ) ;
#163 = CARTESIAN_POINT ( 'NONE',  ( 1.038140960788603902E-15, 0.5149999999999992362, 0.2973353886326602358 ) ) ;
#164 = AXIS2_PLACEMENT_3D ( 'NONE', #45, #121, #13 ) ;
#165 = DIRECTION ( 'NONE',  ( -3.739669794926677069E-31, -1.000000000000000000, -1.052623468432530128E-16 ) ) ;
#166 = DIRECTION ( 'NONE',  ( 0.0000000000000000000, -1.000000000000000000, 0.0000000000000000000 ) ) ;
#167 = CARTESIAN_POINT ( 'NONE',  ( 3.142333204958820020E-14, 0.5149999999999993472, 9.000000000000000000 ) ) ;
#168 = FACE_OUTER_BOUND ( 'NONE', #124, .T. ) ;
#169 = CARTESIAN_POINT ( 'NONE',  ( 0.0000000000000000000, 0.0000000000000000000, 0.0000000000000000000 ) ) ;
#170 = PRODUCT_DEFINITION ( 'UNKNOWN', '', #19, #27 ) ;
#171 = APPROVAL_STATUS ( 'not_yet_approved' ) ;
#172 = APPROVAL_PERSON_ORGANIZATION ( #187, #193, #17 ) ;
#173 = DATE_TIME_ROLE ( 'creation_date' ) ;
#174 = DATE_AND_TIME ( #223, #65 ) ;
#175 = DIRECTION ( 'NONE',  ( 1.000000000000000000, 0.0000000000000000000, 0.0000000000000000000 ) ) ;
#176 = AXIS2_PLACEMENT_3D ( 'NONE', #56, #75, #131 ) ;
#177 = MANIFOLD_SOLID_BREP ( 'Corps-Déplacer/Copier1[1]', #85 ) ;
#178 = AXIS2_PLACEMENT_3D ( 'NONE', #152, #216, #82 ) ;
#179 = CARTESIAN_POINT ( 'NONE',  ( 1.038140960788603705E-15, -3.641308319622216120E-17, 0.2973353886326601803 ) ) ;
#180 = AXIS2_PLACEMENT_3D ( 'NONE', #210, #134, #175 ) ;
#181 = FACE_OUTER_BOUND ( 'NONE', #92, .T. ) ;
#182 = PRODUCT ( '958011', '958011', '', ( #71 ) ) ;
#183 = ADVANCED_FACE ( 'NONE', ( #8 ), #119, .T. ) ;
#184 = DIRECTION ( 'NONE',  ( -3.491481338843133355E-15, 1.224646799147353207E-16, -1.000000000000000000 ) ) ;
#185 = PLANE ( 'NONE',  #164 ) ;
#186 = AXIS2_PLACEMENT_3D ( 'NONE', #20, #70, #198 ) ;
#187 = PERSON_AND_ORGANIZATION ( #159, #138 ) ;
#188 = CC_DESIGN_PERSON_AND_ORGANIZATION_ASSIGNMENT ( #191, #16, ( #182 ) ) ;
#189 = DATE_AND_TIME ( #115, #86 ) ;
#190 = PERSON_AND_ORGANIZATION_ROLE ( 'classification_officer' ) ;
#191 = PERSON_AND_ORGANIZATION ( #159, #138 ) ;
#192 = LOCAL_TIME ( 10, 13, 11.00000000000000000, #91 ) ;
#193 = APPROVAL ( #171, 'UNSPECIFIED' ) ;
#194 = AXIS2_PLACEMENT_3D ( 'NONE', #169, #42, #87 ) ;
#195 = ORIENTED_EDGE ( 'NONE', *, *, #35, .F. ) ;
#196 = CARTESIAN_POINT ( 'NONE',  ( 1.047444401652940007E-13, 4.124339402320052999E-33, 30.00000000000000000 ) ) ;
#197 = EDGE_LOOP ( 'NONE', ( #24 ) ) ;
#198 = DIRECTION ( 'NONE',  ( 0.0000000000000000000, 1.000000000000000000, 0.0000000000000000000 ) ) ;
#199 = VERTEX_POINT ( 'NONE', #83 ) ;
#200 = AXIS2_PLACEMENT_3D ( 'NONE', #179, #109, #165 ) ;
#201 = CC_DESIGN_DATE_AND_TIME_ASSIGNMENT ( #142, #55, ( #36 ) ) ;
#202 = VERTEX_POINT ( 'NONE', #150 ) ;
#203 = DIRECTION ( 'NONE',  ( 4.275831445896958607E-31, 1.000000000000000000, 1.224646799147353207E-16 ) ) ;
#204 = APPROVAL_DATE_TIME ( #174, #205 ) ;
#205 = APPROVAL ( #143, 'UNSPECIFIED' ) ;
#206 = APPLICATION_CONTEXT ( 'configuration controlled 3d designs of mechanical parts and assemblies' ) ;
#207 = ADVANCED_BREP_SHAPE_REPRESENTATION ( '958011', ( #177, #114, #180 ), #97 ) ;
#208 = COORDINATED_UNIVERSAL_TIME_OFFSET ( 1, 0, .AHEAD. ) ;
#209 = PERSON_AND_ORGANIZATION ( #159, #138 ) ;
#210 = CARTESIAN_POINT ( 'NONE',  ( 0.0000000000000000000, 0.0000000000000000000, 0.0000000000000000000 ) ) ;
#211 = APPROVAL_DATE_TIME ( #95, #193 ) ;
#212 = EDGE_CURVE ( 'NONE', #66, #66, #59, .T. ) ;
#213 = ORIENTED_EDGE ( 'NONE', *, *, #30, .T. ) ;
#214 = ORIENTED_EDGE ( 'NONE', *, *, #30, .F. ) ;
#215 = CONICAL_SURFACE ( 'NONE', #148, 0.7499999999999975575, 0.5235987755982919323 ) ;
#216 = DIRECTION ( 'NONE',  ( -3.491481338843133355E-15, 1.224646799147353207E-16, -1.000000000000000000 ) ) ;
#217 = PLANE ( 'NONE',  #6 ) ;
#218 = APPROVAL ( #52, 'UNSPECIFIED' ) ;
#219 = VERTEX_POINT ( 'NONE', #167 ) ;
#220 = ORIENTED_EDGE ( 'NONE', *, *, #22, .F. ) ;
#221 = VERTEX_POINT ( 'NONE', #163 ) ;
#222 = APPROVAL_DATE_TIME ( #50, #218 ) ;
#223 = CALENDAR_DATE ( 2021, 8, 10 ) ;
ENDSEC;
END-ISO-10303-21;
