ISO-10303-21;
HEADER;
FILE_DESCRIPTION (( 'STEP AP203' ),
    '1' );
FILE_NAME ('958010.step',
    '2021-10-08T05:54:16',
    ( '' ),
    ( '' ),
    'SwSTEP 2.0',
    'SolidWorks 2019',
    '' );
FILE_SCHEMA (( 'CONFIG_CONTROL_DESIGN' ));
ENDSEC;

DATA;
#1 = DIRECTION ( 'NONE',  ( 3.491481338843133355E-15, -1.224646799147353207E-16, 1.000000000000000000 ) ) ;
#2 = ADVANCED_FACE ( 'NONE', ( #211, #185 ), #213, .T. ) ;
#3 = EDGE_LOOP ( 'NONE', ( #111 ) ) ;
#4 = APPROVAL_PERSON_ORGANIZATION ( #162, #56, #68 ) ;
#5 =( NAMED_UNIT ( * ) SI_UNIT ( $, .STERADIAN. ) SOLID_ANGLE_UNIT ( ) );
#6 = APPLICATION_CONTEXT ( 'configuration controlled 3d designs of mechanical parts and assemblies' ) ;
#7 = CLOSED_SHELL ( 'NONE', ( #52, #137, #2, #46, #151 ) ) ;
#8 = DIRECTION ( 'NONE',  ( -3.491481338843133355E-15, 1.224646799147353207E-16, -1.000000000000000000 ) ) ;
#9 = DIRECTION ( 'NONE',  ( -3.491481338843133355E-15, 1.224646799147353207E-16, -1.000000000000000000 ) ) ;
#10 = DIRECTION ( 'NONE',  ( -3.491481338843133355E-15, 1.224646799147353207E-16, -1.000000000000000000 ) ) ;
#11 = APPROVAL ( #53, 'UNSPECIFIED' ) ;
#12 = DESIGN_CONTEXT ( 'detailed design', #6, 'design' ) ;
#13 = APPROVAL_ROLE ( '' ) ;
#14 = ORIENTED_EDGE ( 'NONE', *, *, #181, .T. ) ;
#15 = SHAPE_DEFINITION_REPRESENTATION ( #89, #100 ) ;
#16 = PERSON_AND_ORGANIZATION_ROLE ( 'design_supplier' ) ;
#17 = CC_DESIGN_PERSON_AND_ORGANIZATION_ASSIGNMENT ( #51, #221, ( #22 ) ) ;
#18 = PRODUCT ( '958010', '958010', '', ( #193 ) ) ;
#19 = ORIENTED_EDGE ( 'NONE', *, *, #181, .F. ) ;
#20 = APPROVAL_ROLE ( '' ) ;
#21 = FACE_OUTER_BOUND ( 'NONE', #143, .T. ) ;
#22 = PRODUCT_DEFINITION_FORMATION_WITH_SPECIFIED_SOURCE ( 'ANY', '', #18, .NOT_KNOWN. ) ;
#23 = CC_DESIGN_DATE_AND_TIME_ASSIGNMENT ( #196, #35, ( #84 ) ) ;
#24 = DIRECTION ( 'NONE',  ( 3.491481338843133355E-15, -1.224646799147353207E-16, 1.000000000000000000 ) ) ;
#25 = ORIENTED_EDGE ( 'NONE', *, *, #36, .F. ) ;
#26 = AXIS2_PLACEMENT_3D ( 'NONE', #88, #83, #156 ) ;
#27 = FACE_OUTER_BOUND ( 'NONE', #184, .T. ) ;
#28 = ADVANCED_FACE ( 'NONE', ( #129 ), #140, .T. ) ;
#29 = AXIS2_PLACEMENT_3D ( 'NONE', #212, #112, #40 ) ;
#30 = DIRECTION ( 'NONE',  ( 0.0000000000000000000, 1.000000000000000000, 0.0000000000000000000 ) ) ;
#31 = PLANE ( 'NONE',  #115 ) ;
#32 = APPROVAL_DATE_TIME ( #123, #11 ) ;
#33 = DATE_AND_TIME ( #122, #93 ) ;
#34 = EDGE_LOOP ( 'NONE', ( #19 ) ) ;
#35 = DATE_TIME_ROLE ( 'creation_date' ) ;
#36 = EDGE_CURVE ( 'NONE', #66, #66, #160, .T. ) ;
#38 = APPLICATION_PROTOCOL_DEFINITION ( 'international standard', 'config_control_design', 1994, #218 ) ;
#37 = PERSON ( 'UNSPECIFIED', 'UNSPECIFIED', 'UNSPECIFIED', ('UNSPECIFIED'), ('UNSPECIFIED'), ('UNSPECIFIED') ) ;
#39 = APPROVAL_PERSON_ORGANIZATION ( #207, #11, #20 ) ;
#40 = DIRECTION ( 'NONE',  ( 3.739669794926677069E-31, 1.000000000000000000, 1.052623468432530128E-16 ) ) ;
#41 = DIRECTION ( 'NONE',  ( -3.491481338843133355E-15, 1.224646799147353207E-16, -1.000000000000000000 ) ) ;
#42 = EDGE_LOOP ( 'NONE', ( #204 ) ) ;
#43 = AXIS2_PLACEMENT_3D ( 'NONE', #172, #136, #119 ) ;
#44 =( NAMED_UNIT ( * ) PLANE_ANGLE_UNIT ( ) SI_UNIT ( $, .RADIAN. ) );
#45 = DIRECTION ( 'NONE',  ( 3.491481338843133355E-15, -1.224646799147353207E-16, 1.000000000000000000 ) ) ;
#46 = ADVANCED_FACE ( 'NONE', ( #94, #223 ), #99, .T. ) ;
#47 = CARTESIAN_POINT ( 'NONE',  ( 1.038140960788603902E-15, 0.5149999999999992362, 0.2973353886326602358 ) ) ;
#48 =( GEOMETRIC_REPRESENTATION_CONTEXT ( 3 ) GLOBAL_UNCERTAINTY_ASSIGNED_CONTEXT ( ( #176 ) ) GLOBAL_UNIT_ASSIGNED_CONTEXT ( ( #148, #44, #5 ) ) REPRESENTATION_CONTEXT ( 'NONE', 'WORKASPACE' ) );
#49 = DIRECTION ( 'NONE',  ( 3.491481338843133355E-15, -1.224646799147353207E-16, 1.000000000000000000 ) ) ;
#50 = CARTESIAN_POINT ( 'NONE',  ( 3.142333204958820020E-14, 3.861881440354271161E-33, 9.000000000000000000 ) ) ;
#51 = PERSON_AND_ORGANIZATION ( #37, #57 ) ;
#52 = ADVANCED_FACE ( 'NONE', ( #21 ), #92, .F. ) ;
#53 = APPROVAL_STATUS ( 'not_yet_approved' ) ;
#54 = SECURITY_CLASSIFICATION ( '', '', #121 ) ;
#55 = COORDINATED_UNIVERSAL_TIME_OFFSET ( 1, 0, .AHEAD. ) ;
#56 = APPROVAL ( #165, 'UNSPECIFIED' ) ;
#57 = ORGANIZATION ( 'UNSPECIFIED', 'UNSPECIFIED', '' ) ;
#58 = CARTESIAN_POINT ( 'NONE',  ( 1.038140960788603705E-15, -3.641308319622216120E-17, 0.2973353886326601803 ) ) ;
#59 = ADVANCED_FACE ( 'NONE', ( #190 ), #31, .T. ) ;
#60 = DIRECTION ( 'NONE',  ( -3.491481338843133355E-15, 1.224646799147353207E-16, -1.000000000000000000 ) ) ;
#61 = LOCAL_TIME ( 7, 54, 16.00000000000000000, #70 ) ;
#62 = CC_DESIGN_DATE_AND_TIME_ASSIGNMENT ( #33, #67, ( #54 ) ) ;
#63 = VERTEX_POINT ( 'NONE', #175 ) ;
#64 = CC_DESIGN_APPROVAL ( #11, ( #84 ) ) ;
#65 = CARTESIAN_POINT ( 'NONE',  ( 1.040461438975253740E-13, -3.649447461459112464E-15, 29.80000000000000071 ) ) ;
#66 = VERTEX_POINT ( 'NONE', #47 ) ;
#67 = DATE_TIME_ROLE ( 'classification_date' ) ;
#68 = APPROVAL_ROLE ( '' ) ;
#69 = PERSON_AND_ORGANIZATION ( #37, #57 ) ;
#70 = COORDINATED_UNIVERSAL_TIME_OFFSET ( 1, 0, .AHEAD. ) ;
#71 = CLOSED_SHELL ( 'NONE', ( #28, #171, #59 ) ) ;
#72 = APPROVAL_PERSON_ORGANIZATION ( #69, #192, #13 ) ;
#73 = ORIENTED_EDGE ( 'NONE', *, *, #142, .F. ) ;
#74 = DIRECTION ( 'NONE',  ( -4.275831445896958607E-31, -1.000000000000000000, -1.224646799147353207E-16 ) ) ;
#75 = ORIENTED_EDGE ( 'NONE', *, *, #36, .T. ) ;
#76 = LOCAL_TIME ( 7, 54, 16.00000000000000000, #90 ) ;
#77 = CYLINDRICAL_SURFACE ( 'NONE', #86, 0.5149999999999997913 ) ;
#78 = PLANE ( 'NONE',  #125 ) ;
#79 = MANIFOLD_SOLID_BREP ( 'Corps-Déplacer/Copier1[2]', #71 ) ;
#80 = CARTESIAN_POINT ( 'NONE',  ( 3.284447647163860830E-14, 0.7499999999999963363, 9.407031939778686791 ) ) ;
#81 = DIRECTION ( 'NONE',  ( 0.0000000000000000000, 1.000000000000000000, 0.0000000000000000000 ) ) ;
#82 = CC_DESIGN_SECURITY_CLASSIFICATION ( #54, ( #22 ) ) ;
#83 = DIRECTION ( 'NONE',  ( 0.0000000000000000000, 0.0000000000000000000, 1.000000000000000000 ) ) ;
#84 = PRODUCT_DEFINITION ( 'UNKNOWN', '', #22, #12 ) ;
#85 = APPROVAL_STATUS ( 'not_yet_approved' ) ;
#86 = AXIS2_PLACEMENT_3D ( 'NONE', #150, #10, #116 ) ;
#87 = PERSON_AND_ORGANIZATION ( #37, #57 ) ;
#88 = CARTESIAN_POINT ( 'NONE',  ( 0.0000000000000000000, 0.0000000000000000000, 0.0000000000000000000 ) ) ;
#89 = PRODUCT_DEFINITION_SHAPE ( 'NONE', 'NONE',  #84 ) ;
#90 = COORDINATED_UNIVERSAL_TIME_OFFSET ( 1, 0, .AHEAD. ) ;
#91 = CC_DESIGN_PERSON_AND_ORGANIZATION_ASSIGNMENT ( #179, #220, ( #54 ) ) ;
#92 = PLANE ( 'NONE',  #209 ) ;
#93 = LOCAL_TIME ( 7, 54, 16.00000000000000000, #219 ) ;
#94 = FACE_OUTER_BOUND ( 'NONE', #42, .T. ) ;
#95 = ORIENTED_EDGE ( 'NONE', *, *, #205, .T. ) ;
#96 = CC_DESIGN_APPROVAL ( #56, ( #22 ) ) ;
#97 = DIRECTION ( 'NONE',  ( -3.491481338843133355E-15, 1.224646799147353207E-16, -1.000000000000000000 ) ) ;
#98 = DIRECTION ( 'NONE',  ( 0.0000000000000000000, -1.000000000000000000, 0.0000000000000000000 ) ) ;
#99 = CONICAL_SURFACE ( 'NONE', #202, 0.5500000000000000444, 0.7853981633974516097 ) ;
#100 = ADVANCED_BREP_SHAPE_REPRESENTATION ( '958010', ( #159, #79, #26 ), #48 ) ;
#101 = FACE_OUTER_BOUND ( 'NONE', #197, .T. ) ;
#102 = VERTEX_POINT ( 'NONE', #80 ) ;
#103 = AXIS2_PLACEMENT_3D ( 'NONE', #146, #60, #145 ) ;
#104 = CALENDAR_DATE ( 2021, 8, 10 ) ;
#105 = DATE_AND_TIME ( #109, #186 ) ;
#106 = EDGE_LOOP ( 'NONE', ( #73 ) ) ;
#107 = PERSON_AND_ORGANIZATION ( #37, #57 ) ;
#108 = AXIS2_PLACEMENT_3D ( 'NONE', #58, #24, #127 ) ;
#109 = CALENDAR_DATE ( 2021, 8, 10 ) ;
#110 = COORDINATED_UNIVERSAL_TIME_OFFSET ( 1, 0, .AHEAD. ) ;
#111 = ORIENTED_EDGE ( 'NONE', *, *, #187, .F. ) ;
#112 = DIRECTION ( 'NONE',  ( -3.491481338843133355E-15, 1.224646799147353207E-16, -1.000000000000000000 ) ) ;
#113 = AXIS2_PLACEMENT_3D ( 'NONE', #65, #8, #30 ) ;
#114 = EDGE_LOOP ( 'NONE', ( #144 ) ) ;
#115 = AXIS2_PLACEMENT_3D ( 'NONE', #50, #49, #138 ) ;
#116 = DIRECTION ( 'NONE',  ( 4.275831445896958607E-31, 1.000000000000000000, 1.224646799147353207E-16 ) ) ;
#117 = CARTESIAN_POINT ( 'NONE',  ( 3.284447647163860830E-14, -1.152029155452688679E-15, 9.407031939778686791 ) ) ;
#118 = DIRECTION ( 'NONE',  ( 4.275831445896958607E-31, 1.000000000000000000, 1.224646799147353207E-16 ) ) ;
#119 = DIRECTION ( 'NONE',  ( 0.0000000000000000000, 1.000000000000000000, 0.0000000000000000000 ) ) ;
#120 = EDGE_LOOP ( 'NONE', ( #25 ) ) ;
#121 = SECURITY_CLASSIFICATION_LEVEL ( 'unclassified' ) ;
#122 = CALENDAR_DATE ( 2021, 8, 10 ) ;
#123 = DATE_AND_TIME ( #104, #178 ) ;
#124 = EDGE_CURVE ( 'NONE', #177, #177, #189, .T. ) ;
#125 = AXIS2_PLACEMENT_3D ( 'NONE', #216, #174, #118 ) ;
#126 = APPLICATION_PROTOCOL_DEFINITION ( 'international standard', 'config_control_design', 1994, #6 ) ;
#127 = DIRECTION ( 'NONE',  ( -3.739669794926677069E-31, -1.000000000000000000, -1.052623468432530128E-16 ) ) ;
#128 = AXIS2_PLACEMENT_3D ( 'NONE', #200, #9, #132 ) ;
#129 = FACE_OUTER_BOUND ( 'NONE', #169, .T. ) ;
#130 = CC_DESIGN_PERSON_AND_ORGANIZATION_ASSIGNMENT ( #194, #158, ( #18 ) ) ;
#131 = FACE_OUTER_BOUND ( 'NONE', #120, .T. ) ;
#132 = DIRECTION ( 'NONE',  ( 0.0000000000000000000, 1.000000000000000000, 0.0000000000000000000 ) ) ;
#133 = PRODUCT_RELATED_PRODUCT_CATEGORY ( 'detail', '', ( #18 ) ) ;
#134 = DIRECTION ( 'NONE',  ( 0.0000000000000000000, 1.000000000000000000, 0.0000000000000000000 ) ) ;
#135 = CIRCLE ( 'NONE', #128, 0.7499999999999975575 ) ;
#136 = DIRECTION ( 'NONE',  ( -3.491481338843133355E-15, 1.224646799147353207E-16, -1.000000000000000000 ) ) ;
#137 = ADVANCED_FACE ( 'NONE', ( #215, #27 ), #149, .T. ) ;
#138 = DIRECTION ( 'NONE',  ( -4.275831445896958607E-31, -1.000000000000000000, -1.224646799147353207E-16 ) ) ;
#139 = PERSON_AND_ORGANIZATION_ROLE ( 'creator' ) ;
#140 = CONICAL_SURFACE ( 'NONE', #108, 0.5149999999999992362, 1.047197551196592746 ) ;
#141 = AXIS2_PLACEMENT_3D ( 'NONE', #117, #45, #98 ) ;
#142 = EDGE_CURVE ( 'NONE', #191, #191, #206, .T. ) ;
#143 = EDGE_LOOP ( 'NONE', ( #199 ) ) ;
#144 = ORIENTED_EDGE ( 'NONE', *, *, #124, .T. ) ;
#145 = DIRECTION ( 'NONE',  ( 4.275831445896959482E-31, 1.000000000000000000, 1.224646799147353207E-16 ) ) ;
#146 = CARTESIAN_POINT ( 'NONE',  ( 0.0000000000000000000, 0.0000000000000000000, 0.0000000000000000000 ) ) ;
#147 = CIRCLE ( 'NONE', #43, 0.5500000000000000444 ) ;
#148 =( LENGTH_UNIT ( ) NAMED_UNIT ( * ) SI_UNIT ( .MILLI., .METRE. ) );
#149 = CONICAL_SURFACE ( 'NONE', #141, 0.7499999999999975575, 0.5235987755982919323 ) ;
#150 = CARTESIAN_POINT ( 'NONE',  ( 0.0000000000000000000, 0.0000000000000000000, 0.0000000000000000000 ) ) ;
#151 = ADVANCED_FACE ( 'NONE', ( #173 ), #78, .F. ) ;
#152 = CARTESIAN_POINT ( 'NONE',  ( 3.142333204958820020E-14, 0.5149999999999993472, 9.000000000000000000 ) ) ;
#153 = VERTEX_POINT ( 'NONE', #152 ) ;
#154 = AXIS2_PLACEMENT_3D ( 'NONE', #217, #188, #81 ) ;
#155 = CARTESIAN_POINT ( 'NONE',  ( 3.142333204958820020E-14, -1.102182119232617714E-15, 9.000000000000000000 ) ) ;
#156 = DIRECTION ( 'NONE',  ( 1.000000000000000000, 0.0000000000000000000, 0.0000000000000000000 ) ) ;
#157 = ORIENTED_EDGE ( 'NONE', *, *, #187, .T. ) ;
#158 = PERSON_AND_ORGANIZATION_ROLE ( 'design_owner' ) ;
#159 = MANIFOLD_SOLID_BREP ( 'Corps-Déplacer/Copier1[1]', #7 ) ;
#160 = CIRCLE ( 'NONE', #29, 0.5149999999999992362 ) ;
#161 = CIRCLE ( 'NONE', #154, 0.5150000000000004574 ) ;
#162 = PERSON_AND_ORGANIZATION ( #37, #57 ) ;
#163 = CC_DESIGN_PERSON_AND_ORGANIZATION_ASSIGNMENT ( #87, #16, ( #22 ) ) ;
#164 = ORIENTED_EDGE ( 'NONE', *, *, #205, .F. ) ;
#165 = APPROVAL_STATUS ( 'not_yet_approved' ) ;
#166 = DATE_AND_TIME ( #182, #61 ) ;
#167 = CARTESIAN_POINT ( 'NONE',  ( 3.142333204958820020E-14, 3.861881440354271161E-33, 9.000000000000000000 ) ) ;
#168 = DIRECTION ( 'NONE',  ( 0.0000000000000000000, 1.000000000000000000, 0.0000000000000000000 ) ) ;
#169 = EDGE_LOOP ( 'NONE', ( #75 ) ) ;
#170 = AXIS2_PLACEMENT_3D ( 'NONE', #155, #97, #134 ) ;
#171 = ADVANCED_FACE ( 'NONE', ( #131, #101 ), #77, .T. ) ;
#172 = CARTESIAN_POINT ( 'NONE',  ( 1.047444401652940007E-13, -3.673940397442059178E-15, 30.00000000000000000 ) ) ;
#173 = FACE_OUTER_BOUND ( 'NONE', #183, .T. ) ;
#174 = DIRECTION ( 'NONE',  ( -3.491481338843133355E-15, 1.224646799147353207E-16, -1.000000000000000000 ) ) ;
#175 = CARTESIAN_POINT ( 'NONE',  ( 1.047444401652940007E-13, 0.5499999999999963807, 30.00000000000000000 ) ) ;
#176 = UNCERTAINTY_MEASURE_WITH_UNIT (LENGTH_MEASURE( 1.000000000000000082E-05 ), #148, 'distance_accuracy_value', 'NONE');
#177 = VERTEX_POINT ( 'NONE', #214 ) ;
#178 = LOCAL_TIME ( 7, 54, 16.00000000000000000, #55 ) ;
#179 = PERSON_AND_ORGANIZATION ( #37, #57 ) ;
#180 = APPROVAL_DATE_TIME ( #105, #192 ) ;
#181 = EDGE_CURVE ( 'NONE', #102, #102, #135, .T. ) ;
#182 = CALENDAR_DATE ( 2021, 8, 10 ) ;
#183 = EDGE_LOOP ( 'NONE', ( #164 ) ) ;
#184 = EDGE_LOOP ( 'NONE', ( #14 ) ) ;
#185 = FACE_OUTER_BOUND ( 'NONE', #114, .T. ) ;
#186 = LOCAL_TIME ( 7, 54, 16.00000000000000000, #110 ) ;
#187 = EDGE_CURVE ( 'NONE', #153, #153, #161, .T. ) ;
#188 = DIRECTION ( 'NONE',  ( -3.491481338843133355E-15, 1.224646799147353207E-16, -1.000000000000000000 ) ) ;
#189 = CIRCLE ( 'NONE', #113, 0.7500000000000001110 ) ;
#190 = FACE_OUTER_BOUND ( 'NONE', #3, .T. ) ;
#191 = VERTEX_POINT ( 'NONE', #201 ) ;
#192 = APPROVAL ( #85, 'UNSPECIFIED' ) ;
#193 = MECHANICAL_CONTEXT ( 'NONE', #218, 'mechanical' ) ;
#194 = PERSON_AND_ORGANIZATION ( #37, #57 ) ;
#195 = CC_DESIGN_PERSON_AND_ORGANIZATION_ASSIGNMENT ( #107, #139, ( #84 ) ) ;
#196 = DATE_AND_TIME ( #208, #76 ) ;
#197 = EDGE_LOOP ( 'NONE', ( #157 ) ) ;
#198 = CARTESIAN_POINT ( 'NONE',  ( 1.047444401652940007E-13, -3.673940397442059178E-15, 30.00000000000000000 ) ) ;
#199 = ORIENTED_EDGE ( 'NONE', *, *, #142, .T. ) ;
#200 = CARTESIAN_POINT ( 'NONE',  ( 3.284447647163860830E-14, -1.152029155452688679E-15, 9.407031939778686791 ) ) ;
#201 = CARTESIAN_POINT ( 'NONE',  ( 3.142333204958820020E-14, 0.5149999999999993472, 9.000000000000000000 ) ) ;
#202 = AXIS2_PLACEMENT_3D ( 'NONE', #198, #41, #168 ) ;
#203 = APPROVAL_DATE_TIME ( #166, #56 ) ;
#204 = ORIENTED_EDGE ( 'NONE', *, *, #124, .F. ) ;
#205 = EDGE_CURVE ( 'NONE', #63, #63, #147, .T. ) ;
#206 = CIRCLE ( 'NONE', #170, 0.5150000000000004574 ) ;
#207 = PERSON_AND_ORGANIZATION ( #37, #57 ) ;
#208 = CALENDAR_DATE ( 2021, 8, 10 ) ;
#209 = AXIS2_PLACEMENT_3D ( 'NONE', #167, #1, #74 ) ;
#210 = EDGE_LOOP ( 'NONE', ( #95 ) ) ;
#211 = FACE_OUTER_BOUND ( 'NONE', #34, .T. ) ;
#212 = CARTESIAN_POINT ( 'NONE',  ( 1.038140960788603705E-15, -3.641308319622216120E-17, 0.2973353886326601803 ) ) ;
#213 = CYLINDRICAL_SURFACE ( 'NONE', #103, 0.7499999999999987788 ) ;
#214 = CARTESIAN_POINT ( 'NONE',  ( 1.040461438975253740E-13, 0.7499999999999964473, 29.80000000000000071 ) ) ;
#215 = FACE_BOUND ( 'NONE', #106, .T. ) ;
#216 = CARTESIAN_POINT ( 'NONE',  ( 1.047444401652940007E-13, 4.124339402320052999E-33, 30.00000000000000000 ) ) ;
#217 = CARTESIAN_POINT ( 'NONE',  ( 3.142333204958820020E-14, -1.102182119232617714E-15, 9.000000000000000000 ) ) ;
#218 = APPLICATION_CONTEXT ( 'configuration controlled 3d designs of mechanical parts and assemblies' ) ;
#219 = COORDINATED_UNIVERSAL_TIME_OFFSET ( 1, 0, .AHEAD. ) ;
#220 = PERSON_AND_ORGANIZATION_ROLE ( 'classification_officer' ) ;
#221 = PERSON_AND_ORGANIZATION_ROLE ( 'creator' ) ;
#222 = CC_DESIGN_APPROVAL ( #192, ( #54 ) ) ;
#223 = FACE_BOUND ( 'NONE', #210, .T. ) ;
ENDSEC;
END-ISO-10303-21;
