ISO-10303-21;
HEADER;
FILE_DESCRIPTION (( 'STEP AP203' ),
    '1' );
FILE_NAME ('958007.step',
    '2021-10-08T08:13:09',
    ( '' ),
    ( '' ),
    'SwSTEP 2.0',
    'SolidWorks 2019',
    '' );
FILE_SCHEMA (( 'CONFIG_CONTROL_DESIGN' ));
ENDSEC;

DATA;
#1 = EDGE_CURVE ( 'NONE', #93, #93, #194, .T. ) ;
#2 = FACE_OUTER_BOUND ( 'NONE', #117, .T. ) ;
#3 = AXIS2_PLACEMENT_3D ( 'NONE', #135, #80, #37 ) ;
#4 = FACE_OUTER_BOUND ( 'NONE', #153, .T. ) ;
#5 = CARTESIAN_POINT ( 'NONE',  ( 9.171924993375045181E-16, 0.4549999999999991274, 0.2626943724812823566 ) ) ;
#6 = VERTEX_POINT ( 'NONE', #185 ) ;
#7 = APPROVAL_PERSON_ORGANIZATION ( #218, #160, #63 ) ;
#8 = COORDINATED_UNIVERSAL_TIME_OFFSET ( 1, 0, .AHEAD. ) ;
#9 = CIRCLE ( 'NONE', #169, 0.6500000000000000222 ) ;
#10 =( NAMED_UNIT ( * ) SI_UNIT ( $, .STERADIAN. ) SOLID_ANGLE_UNIT ( ) );
#11 = PERSON_AND_ORGANIZATION ( #211, #127 ) ;
#12 = APPROVAL ( #128, 'UNSPECIFIED' ) ;
#13 = UNCERTAINTY_MEASURE_WITH_UNIT (LENGTH_MEASURE( 1.000000000000000082E-05 ), #102, 'distance_accuracy_value', 'NONE');
#14 = MANIFOLD_SOLID_BREP ( 'Corps-Déplacer/Copier1[2]', #49 ) ;
#15 = DIRECTION ( 'NONE',  ( -4.232813064587338840E-31, -1.000000000000000000, -1.191430958775281651E-16 ) ) ;
#16 = PERSON_AND_ORGANIZATION ( #211, #127 ) ;
#17 = PRODUCT_DEFINITION ( 'UNKNOWN', '', #112, #101 ) ;
#18 = CONICAL_SURFACE ( 'NONE', #40, 0.6500000000000000222, 0.7853981633974516097 ) ;
#19 = ORIENTED_EDGE ( 'NONE', *, *, #182, .T. ) ;
#20 = APPROVAL_STATUS ( 'not_yet_approved' ) ;
#21 = ORIENTED_EDGE ( 'NONE', *, *, #120, .F. ) ;
#22 = LOCAL_TIME ( 10, 13, 9.000000000000000000, #8 ) ;
#23 = MECHANICAL_CONTEXT ( 'NONE', #189, 'mechanical' ) ;
#24 = CARTESIAN_POINT ( 'NONE',  ( 1.043952920314096810E-13, -3.661693929450586610E-15, 29.89999999999999858 ) ) ;
#25 = AXIS2_PLACEMENT_3D ( 'NONE', #24, #83, #145 ) ;
#26 = DIRECTION ( 'NONE',  ( -3.491481338843133355E-15, 1.224646799147353207E-16, -1.000000000000000000 ) ) ;
#27 = CC_DESIGN_PERSON_AND_ORGANIZATION_ASSIGNMENT ( #16, #78, ( #112 ) ) ;
#28 = CIRCLE ( 'NONE', #205, 0.7499999999999973355 ) ;
#29 = CALENDAR_DATE ( 2021, 8, 10 ) ;
#30 = CARTESIAN_POINT ( 'NONE',  ( 9.171924993375043208E-16, -3.217078224132249582E-17, 0.2626943724812823011 ) ) ;
#31 = DIRECTION ( 'NONE',  ( 0.0000000000000000000, 1.000000000000000000, 0.0000000000000000000 ) ) ;
#32 = EDGE_LOOP ( 'NONE', ( #150 ) ) ;
#33 = COORDINATED_UNIVERSAL_TIME_OFFSET ( 1, 0, .AHEAD. ) ;
#34 = CC_DESIGN_PERSON_AND_ORGANIZATION_ASSIGNMENT ( #11, #144, ( #17 ) ) ;
#35 = DATE_AND_TIME ( #198, #179 ) ;
#36 = CONICAL_SURFACE ( 'NONE', #222, 0.7499999999999973355, 0.5235987755982914882 ) ;
#37 = DIRECTION ( 'NONE',  ( 4.275831445896957731E-31, 1.000000000000000000, 1.224646799147353207E-16 ) ) ;
#38 = EDGE_LOOP ( 'NONE', ( #76 ) ) ;
#39 = APPROVAL_DATE_TIME ( #158, #160 ) ;
#40 = AXIS2_PLACEMENT_3D ( 'NONE', #180, #26, #170 ) ;
#41 = EDGE_CURVE ( 'NONE', #54, #54, #207, .T. ) ;
#42 = ADVANCED_FACE ( 'NONE', ( #2 ), #44, .F. ) ;
#43 = PRODUCT_DEFINITION_SHAPE ( 'NONE', 'NONE',  #17 ) ;
#44 = PLANE ( 'NONE',  #139 ) ;
#45 = PERSON_AND_ORGANIZATION_ROLE ( 'classification_officer' ) ;
#46 = CC_DESIGN_SECURITY_CLASSIFICATION ( #56, ( #112 ) ) ;
#47 = ADVANCED_FACE ( 'NONE', ( #166, #97 ), #36, .T. ) ;
#48 = DIRECTION ( 'NONE',  ( -3.491481338843133355E-15, 1.224646799147353207E-16, -1.000000000000000000 ) ) ;
#49 = CLOSED_SHELL ( 'NONE', ( #68, #175, #154 ) ) ;
#50 = CARTESIAN_POINT ( 'NONE',  ( 2.657350731218995229E-14, -9.320731664793904953E-16, 7.610954988232820462 ) ) ;
#51 = APPROVAL_STATUS ( 'not_yet_approved' ) ;
#52 = ORIENTED_EDGE ( 'NONE', *, *, #120, .T. ) ;
#53 = APPROVAL_DATE_TIME ( #35, #148 ) ;
#54 = VERTEX_POINT ( 'NONE', #58 ) ;
#55 = SHAPE_DEFINITION_REPRESENTATION ( #43, #178 ) ;
#56 = SECURITY_CLASSIFICATION ( '', '', #81 ) ;
#57 = CC_DESIGN_PERSON_AND_ORGANIZATION_ASSIGNMENT ( #191, #141, ( #112 ) ) ;
#58 = CARTESIAN_POINT ( 'NONE',  ( 1.043952920314096810E-13, 0.7499999999999963363, 29.89999999999999858 ) ) ;
#59 = ORIENTED_EDGE ( 'NONE', *, *, #1, .T. ) ;
#60 = COORDINATED_UNIVERSAL_TIME_OFFSET ( 1, 0, .AHEAD. ) ;
#61 = AXIS2_PLACEMENT_3D ( 'NONE', #221, #77, #173 ) ;
#62 = CC_DESIGN_PERSON_AND_ORGANIZATION_ASSIGNMENT ( #126, #45, ( #56 ) ) ;
#63 = APPROVAL_ROLE ( '' ) ;
#64 = COORDINATED_UNIVERSAL_TIME_OFFSET ( 1, 0, .AHEAD. ) ;
#65 = LOCAL_TIME ( 10, 13, 9.000000000000000000, #64 ) ;
#66 = CIRCLE ( 'NONE', #88, 0.4550000000000009592 ) ;
#67 = PLANE ( 'NONE',  #61 ) ;
#68 = ADVANCED_FACE ( 'NONE', ( #129 ), #151, .T. ) ;
#69 = DATE_AND_TIME ( #91, #75 ) ;
#70 = CARTESIAN_POINT ( 'NONE',  ( 9.171924993375043208E-16, -3.217078224132249582E-17, 0.2626943724812823011 ) ) ;
#71 = VERTEX_POINT ( 'NONE', #134 ) ;
#72 = DATE_AND_TIME ( #220, #65 ) ;
#73 = EDGE_LOOP ( 'NONE', ( #215 ) ) ;
#74 = ADVANCED_FACE ( 'NONE', ( #92, #118 ), #18, .T. ) ;
#75 = LOCAL_TIME ( 10, 13, 9.000000000000000000, #33 ) ;
#76 = ORIENTED_EDGE ( 'NONE', *, *, #208, .T. ) ;
#77 = DIRECTION ( 'NONE',  ( 3.491481338843133355E-15, -1.224646799147353207E-16, 1.000000000000000000 ) ) ;
#78 = PERSON_AND_ORGANIZATION_ROLE ( 'design_supplier' ) ;
#79 = DIRECTION ( 'NONE',  ( 1.000000000000000000, 0.0000000000000000000, 0.0000000000000000000 ) ) ;
#80 = DIRECTION ( 'NONE',  ( -3.491481338843133355E-15, 1.224646799147353207E-16, -1.000000000000000000 ) ) ;
#81 = SECURITY_CLASSIFICATION_LEVEL ( 'unclassified' ) ;
#82 = CC_DESIGN_APPROVAL ( #148, ( #112 ) ) ;
#83 = DIRECTION ( 'NONE',  ( -3.491481338843133355E-15, 1.224646799147353207E-16, -1.000000000000000000 ) ) ;
#84 = APPROVAL_PERSON_ORGANIZATION ( #152, #148, #137 ) ;
#85 = APPLICATION_CONTEXT ( 'configuration controlled 3d designs of mechanical parts and assemblies' ) ;
#86 = PERSON_AND_ORGANIZATION ( #211, #127 ) ;
#87 = APPLICATION_PROTOCOL_DEFINITION ( 'international standard', 'config_control_design', 1994, #189 ) ;
#88 = AXIS2_PLACEMENT_3D ( 'NONE', #119, #98, #31 ) ;
#89 = DIRECTION ( 'NONE',  ( -3.491481338843133355E-15, 1.224646799147353207E-16, -1.000000000000000000 ) ) ;
#90 = DATE_TIME_ROLE ( 'creation_date' ) ;
#91 = CALENDAR_DATE ( 2021, 8, 10 ) ;
#92 = FACE_OUTER_BOUND ( 'NONE', #156, .T. ) ;
#93 = VERTEX_POINT ( 'NONE', #5 ) ;
#94 = EDGE_LOOP ( 'NONE', ( #19 ) ) ;
#95 = APPROVAL_DATE_TIME ( #69, #12 ) ;
#96 = AXIS2_PLACEMENT_3D ( 'NONE', #167, #155, #116 ) ;
#97 = FACE_OUTER_BOUND ( 'NONE', #94, .T. ) ;
#98 = DIRECTION ( 'NONE',  ( -3.491481338843133355E-15, 1.224646799147353207E-16, -1.000000000000000000 ) ) ;
#99 = EDGE_LOOP ( 'NONE', ( #59 ) ) ;
#100 = CARTESIAN_POINT ( 'NONE',  ( 1.047444401652940007E-13, 4.874219293650981803E-33, 30.00000000000000000 ) ) ;
#101 = DESIGN_CONTEXT ( 'detailed design', #85, 'design' ) ;
#102 =( LENGTH_UNIT ( ) NAMED_UNIT ( * ) SI_UNIT ( .MILLI., .METRE. ) );
#103 = CARTESIAN_POINT ( 'NONE',  ( 2.657350731218995229E-14, -9.320731664793904953E-16, 7.610954988232820462 ) ) ;
#104 = DIRECTION ( 'NONE',  ( -3.491481338843133355E-15, 1.224646799147353207E-16, -1.000000000000000000 ) ) ;
#105 = FACE_OUTER_BOUND ( 'NONE', #32, .T. ) ;
#106 = AXIS2_PLACEMENT_3D ( 'NONE', #30, #183, #15 ) ;
#107 = EDGE_LOOP ( 'NONE', ( #52 ) ) ;
#108 = MANIFOLD_SOLID_BREP ( 'Corps-Déplacer/Copier1[1]', #162 ) ;
#109 = ADVANCED_FACE ( 'NONE', ( #217, #114 ), #161, .T. ) ;
#110 = DIRECTION ( 'NONE',  ( -4.275831445896958607E-31, -1.000000000000000000, -1.224646799147353207E-16 ) ) ;
#111 =( NAMED_UNIT ( * ) PLANE_ANGLE_UNIT ( ) SI_UNIT ( $, .RADIAN. ) );
#112 = PRODUCT_DEFINITION_FORMATION_WITH_SPECIFIED_SOURCE ( 'ANY', '', #216, .NOT_KNOWN. ) ;
#113 = CC_DESIGN_DATE_AND_TIME_ASSIGNMENT ( #132, #90, ( #17 ) ) ;
#114 = FACE_OUTER_BOUND ( 'NONE', #131, .T. ) ;
#115 = DIRECTION ( 'NONE',  ( 4.275831445896959482E-31, 1.000000000000000000, 1.224646799147353207E-16 ) ) ;
#116 = DIRECTION ( 'NONE',  ( 0.0000000000000000000, 1.000000000000000000, 0.0000000000000000000 ) ) ;
#117 = EDGE_LOOP ( 'NONE', ( #184 ) ) ;
#118 = FACE_BOUND ( 'NONE', #107, .T. ) ;
#119 = CARTESIAN_POINT ( 'NONE',  ( 2.478951750578624367E-14, -8.694992273946207746E-16, 7.099999999999999645 ) ) ;
#120 = EDGE_CURVE ( 'NONE', #71, #71, #9, .T. ) ;
#121 = DIRECTION ( 'NONE',  ( 0.0000000000000000000, 0.0000000000000000000, 1.000000000000000000 ) ) ;
#122 = CARTESIAN_POINT ( 'NONE',  ( 2.657350731218995229E-14, 0.7499999999999963363, 7.610954988232820462 ) ) ;
#123 = FACE_OUTER_BOUND ( 'NONE', #136, .T. ) ;
#124 = ORIENTED_EDGE ( 'NONE', *, *, #208, .F. ) ;
#125 = CYLINDRICAL_SURFACE ( 'NONE', #3, 0.4550000000000001266 ) ;
#126 = PERSON_AND_ORGANIZATION ( #211, #127 ) ;
#127 = ORGANIZATION ( 'UNSPECIFIED', 'UNSPECIFIED', '' ) ;
#128 = APPROVAL_STATUS ( 'not_yet_approved' ) ;
#129 = FACE_OUTER_BOUND ( 'NONE', #99, .T. ) ;
#130 = DIRECTION ( 'NONE',  ( 3.491481338843133355E-15, -1.224646799147353207E-16, 1.000000000000000000 ) ) ;
#131 = EDGE_LOOP ( 'NONE', ( #172 ) ) ;
#132 = DATE_AND_TIME ( #29, #22 ) ;
#133 = APPROVAL_PERSON_ORGANIZATION ( #209, #12, #212 ) ;
#134 = CARTESIAN_POINT ( 'NONE',  ( 1.047444401652940007E-13, 0.6499999999999962474, 30.00000000000000000 ) ) ;
#135 = CARTESIAN_POINT ( 'NONE',  ( 0.0000000000000000000, 0.0000000000000000000, 0.0000000000000000000 ) ) ;
#136 = EDGE_LOOP ( 'NONE', ( #21 ) ) ;
#137 = APPROVAL_ROLE ( '' ) ;
#138 = PLANE ( 'NONE',  #177 ) ;
#139 = AXIS2_PLACEMENT_3D ( 'NONE', #142, #193, #110 ) ;
#140 = DATE_TIME_ROLE ( 'classification_date' ) ;
#141 = PERSON_AND_ORGANIZATION_ROLE ( 'creator' ) ;
#142 = CARTESIAN_POINT ( 'NONE',  ( 2.478951750578624367E-14, 3.411953505555720858E-33, 7.099999999999999645 ) ) ;
#143 = AXIS2_PLACEMENT_3D ( 'NONE', #210, #48, #115 ) ;
#144 = PERSON_AND_ORGANIZATION_ROLE ( 'creator' ) ;
#145 = DIRECTION ( 'NONE',  ( 0.0000000000000000000, 1.000000000000000000, 0.0000000000000000000 ) ) ;
#146 = PRODUCT_RELATED_PRODUCT_CATEGORY ( 'detail', '', ( #216 ) ) ;
#147 = AXIS2_PLACEMENT_3D ( 'NONE', #70, #104, #219 ) ;
#148 = APPROVAL ( #51, 'UNSPECIFIED' ) ;
#149 = CARTESIAN_POINT ( 'NONE',  ( 2.478951750578624367E-14, 0.4550000000000001266, 7.099999999999999645 ) ) ;
#150 = ORIENTED_EDGE ( 'NONE', *, *, #1, .F. ) ;
#151 = CONICAL_SURFACE ( 'NONE', #106, 0.4549999999999991829, 1.047197551196592746 ) ;
#152 = PERSON_AND_ORGANIZATION ( #211, #127 ) ;
#153 = EDGE_LOOP ( 'NONE', ( #124 ) ) ;
#154 = ADVANCED_FACE ( 'NONE', ( #4 ), #67, .T. ) ;
#155 = DIRECTION ( 'NONE',  ( -3.491481338843133355E-15, 1.224646799147353207E-16, -1.000000000000000000 ) ) ;
#156 = EDGE_LOOP ( 'NONE', ( #186 ) ) ;
#157 = DIRECTION ( 'NONE',  ( -3.491481338843133355E-15, 1.224646799147353207E-16, -1.000000000000000000 ) ) ;
#158 = DATE_AND_TIME ( #206, #159 ) ;
#159 = LOCAL_TIME ( 10, 13, 9.000000000000000000, #223 ) ;
#160 = APPROVAL ( #20, 'UNSPECIFIED' ) ;
#161 = CYLINDRICAL_SURFACE ( 'NONE', #143, 0.7499999999999986677 ) ;
#162 = CLOSED_SHELL ( 'NONE', ( #42, #47, #109, #74, #163 ) ) ;
#163 = ADVANCED_FACE ( 'NONE', ( #123 ), #138, .F. ) ;
#164 = DIRECTION ( 'NONE',  ( 0.0000000000000000000, 1.000000000000000000, 0.0000000000000000000 ) ) ;
#165 = PERSON_AND_ORGANIZATION_ROLE ( 'design_owner' ) ;
#166 = FACE_BOUND ( 'NONE', #202, .T. ) ;
#167 = CARTESIAN_POINT ( 'NONE',  ( 2.478951750578624367E-14, -8.694992273946207746E-16, 7.099999999999999645 ) ) ;
#168 = VERTEX_POINT ( 'NONE', #149 ) ;
#169 = AXIS2_PLACEMENT_3D ( 'NONE', #181, #89, #164 ) ;
#170 = DIRECTION ( 'NONE',  ( 0.0000000000000000000, 1.000000000000000000, 0.0000000000000000000 ) ) ;
#171 = DIRECTION ( 'NONE',  ( -3.491481338843133355E-15, 1.224646799147353207E-16, -1.000000000000000000 ) ) ;
#172 = ORIENTED_EDGE ( 'NONE', *, *, #41, .T. ) ;
#173 = DIRECTION ( 'NONE',  ( -4.275831445896958607E-31, -1.000000000000000000, -1.224646799147353207E-16 ) ) ;
#174 = DIRECTION ( 'NONE',  ( 0.0000000000000000000, 1.000000000000000000, 0.0000000000000000000 ) ) ;
#175 = ADVANCED_FACE ( 'NONE', ( #105, #203 ), #125, .T. ) ;
#176 = CC_DESIGN_APPROVAL ( #12, ( #17 ) ) ;
#177 = AXIS2_PLACEMENT_3D ( 'NONE', #100, #171, #188 ) ;
#178 = ADVANCED_BREP_SHAPE_REPRESENTATION ( '958007', ( #108, #14, #190 ), #214 ) ;
#179 = LOCAL_TIME ( 10, 13, 9.000000000000000000, #60 ) ;
#180 = CARTESIAN_POINT ( 'NONE',  ( 1.047444401652940007E-13, -3.673940397442059178E-15, 30.00000000000000000 ) ) ;
#181 = CARTESIAN_POINT ( 'NONE',  ( 1.047444401652940007E-13, -3.673940397442059178E-15, 30.00000000000000000 ) ) ;
#182 = EDGE_CURVE ( 'NONE', #201, #201, #28, .T. ) ;
#183 = DIRECTION ( 'NONE',  ( 3.491481338843133355E-15, -1.224646799147353207E-16, 1.000000000000000000 ) ) ;
#184 = ORIENTED_EDGE ( 'NONE', *, *, #200, .T. ) ;
#185 = CARTESIAN_POINT ( 'NONE',  ( 2.478951750578624367E-14, 0.4550000000000001266, 7.099999999999999645 ) ) ;
#186 = ORIENTED_EDGE ( 'NONE', *, *, #41, .F. ) ;
#187 = CC_DESIGN_PERSON_AND_ORGANIZATION_ASSIGNMENT ( #86, #165, ( #216 ) ) ;
#188 = DIRECTION ( 'NONE',  ( 4.275831445896958607E-31, 1.000000000000000000, 1.224646799147353207E-16 ) ) ;
#189 = APPLICATION_CONTEXT ( 'configuration controlled 3d designs of mechanical parts and assemblies' ) ;
#190 = AXIS2_PLACEMENT_3D ( 'NONE', #197, #121, #79 ) ;
#191 = PERSON_AND_ORGANIZATION ( #211, #127 ) ;
#192 = CC_DESIGN_APPROVAL ( #160, ( #56 ) ) ;
#193 = DIRECTION ( 'NONE',  ( 3.491481338843133355E-15, -1.224646799147353207E-16, 1.000000000000000000 ) ) ;
#194 = CIRCLE ( 'NONE', #147, 0.4549999999999991829 ) ;
#195 = APPLICATION_PROTOCOL_DEFINITION ( 'international standard', 'config_control_design', 1994, #85 ) ;
#196 = ORIENTED_EDGE ( 'NONE', *, *, #200, .F. ) ;
#197 = CARTESIAN_POINT ( 'NONE',  ( 0.0000000000000000000, 0.0000000000000000000, 0.0000000000000000000 ) ) ;
#198 = CALENDAR_DATE ( 2021, 8, 10 ) ;
#199 = CIRCLE ( 'NONE', #96, 0.4550000000000009592 ) ;
#200 = EDGE_CURVE ( 'NONE', #168, #168, #199, .T. ) ;
#201 = VERTEX_POINT ( 'NONE', #122 ) ;
#202 = EDGE_LOOP ( 'NONE', ( #196 ) ) ;
#203 = FACE_OUTER_BOUND ( 'NONE', #38, .T. ) ;
#204 = CC_DESIGN_DATE_AND_TIME_ASSIGNMENT ( #72, #140, ( #56 ) ) ;
#205 = AXIS2_PLACEMENT_3D ( 'NONE', #103, #157, #174 ) ;
#206 = CALENDAR_DATE ( 2021, 8, 10 ) ;
#207 = CIRCLE ( 'NONE', #25, 0.7500000000000000000 ) ;
#208 = EDGE_CURVE ( 'NONE', #6, #6, #66, .T. ) ;
#209 = PERSON_AND_ORGANIZATION ( #211, #127 ) ;
#210 = CARTESIAN_POINT ( 'NONE',  ( 0.0000000000000000000, 0.0000000000000000000, 0.0000000000000000000 ) ) ;
#211 = PERSON ( 'UNSPECIFIED', 'UNSPECIFIED', 'UNSPECIFIED', ('UNSPECIFIED'), ('UNSPECIFIED'), ('UNSPECIFIED') ) ;
#212 = APPROVAL_ROLE ( '' ) ;
#213 = DIRECTION ( 'NONE',  ( 0.0000000000000000000, -1.000000000000000000, 0.0000000000000000000 ) ) ;
#214 =( GEOMETRIC_REPRESENTATION_CONTEXT ( 3 ) GLOBAL_UNCERTAINTY_ASSIGNED_CONTEXT ( ( #13 ) ) GLOBAL_UNIT_ASSIGNED_CONTEXT ( ( #102, #111, #10 ) ) REPRESENTATION_CONTEXT ( 'NONE', 'WORKASPACE' ) );
#215 = ORIENTED_EDGE ( 'NONE', *, *, #182, .F. ) ;
#216 = PRODUCT ( '958007', '958007', '', ( #23 ) ) ;
#217 = FACE_OUTER_BOUND ( 'NONE', #73, .T. ) ;
#218 = PERSON_AND_ORGANIZATION ( #211, #127 ) ;
#219 = DIRECTION ( 'NONE',  ( 4.232813064587338840E-31, 1.000000000000000000, 1.191430958775281651E-16 ) ) ;
#220 = CALENDAR_DATE ( 2021, 8, 10 ) ;
#221 = CARTESIAN_POINT ( 'NONE',  ( 2.478951750578624367E-14, 3.411953505555720858E-33, 7.099999999999999645 ) ) ;
#222 = AXIS2_PLACEMENT_3D ( 'NONE', #50, #130, #213 ) ;
#223 = COORDINATED_UNIVERSAL_TIME_OFFSET ( 1, 0, .AHEAD. ) ;
ENDSEC;
END-ISO-10303-21;
