ISO-10303-21;
HEADER;
FILE_DESCRIPTION (( 'STEP AP203' ),
    '1' );
FILE_NAME ('958006.step',
    '2021-10-08T05:54:16',
    ( '' ),
    ( '' ),
    'SwSTEP 2.0',
    'SolidWorks 2019',
    '' );
FILE_SCHEMA (( 'CONFIG_CONTROL_DESIGN' ));
ENDSEC;

DATA;
#1 = CALENDAR_DATE ( 2021, 8, 10 ) ;
#2 = APPROVAL_DATE_TIME ( #150, #181 ) ;
#3 = AXIS2_PLACEMENT_3D ( 'NONE', #36, #5, #122 ) ;
#4 = APPROVAL_PERSON_ORGANIZATION ( #223, #181, #80 ) ;
#5 = DIRECTION ( 'NONE',  ( -3.491481338843133355E-15, 1.224646799147353207E-16, -1.000000000000000000 ) ) ;
#6 = CLOSED_SHELL ( 'NONE', ( #27, #149, #192, #167, #31 ) ) ;
#7 = FACE_OUTER_BOUND ( 'NONE', #54, .T. ) ;
#8 = EDGE_LOOP ( 'NONE', ( #69 ) ) ;
#9 = DIRECTION ( 'NONE',  ( -4.275831445896958607E-31, -1.000000000000000000, -1.224646799147353207E-16 ) ) ;
#10 = CARTESIAN_POINT ( 'NONE',  ( 2.478951750578624367E-14, 3.411953505555720858E-33, 7.099999999999999645 ) ) ;
#11 = ADVANCED_FACE ( 'NONE', ( #177 ), #191, .T. ) ;
#12 = CYLINDRICAL_SURFACE ( 'NONE', #174, 0.4550000000000001266 ) ;
#13 = EDGE_CURVE ( 'NONE', #215, #215, #154, .T. ) ;
#14 = DIRECTION ( 'NONE',  ( -3.491481338843133355E-15, 1.224646799147353207E-16, -1.000000000000000000 ) ) ;
#15 = CYLINDRICAL_SURFACE ( 'NONE', #151, 0.7499999999999985567 ) ;
#16 = DIRECTION ( 'NONE',  ( 4.275831445896959482E-31, 1.000000000000000000, 1.224646799147353454E-16 ) ) ;
#17 = CIRCLE ( 'NONE', #153, 0.7499999999999998890 ) ;
#18 = SECURITY_CLASSIFICATION_LEVEL ( 'unclassified' ) ;
#19 = APPROVAL_STATUS ( 'not_yet_approved' ) ;
#20 = PERSON ( 'UNSPECIFIED', 'UNSPECIFIED', 'UNSPECIFIED', ('UNSPECIFIED'), ('UNSPECIFIED'), ('UNSPECIFIED') ) ;
#21 = PERSON_AND_ORGANIZATION_ROLE ( 'design_owner' ) ;
#22 = DIRECTION ( 'NONE',  ( 3.491481338843133355E-15, -1.224646799147353207E-16, 1.000000000000000000 ) ) ;
#23 = PRODUCT_DEFINITION ( 'UNKNOWN', '', #135, #190 ) ;
#24 = EDGE_LOOP ( 'NONE', ( #136 ) ) ;
#25 = DIRECTION ( 'NONE',  ( -3.491481338843133355E-15, 1.224646799147353207E-16, -1.000000000000000000 ) ) ;
#26 = CARTESIAN_POINT ( 'NONE',  ( 1.047444401652940007E-13, -3.673940397442059178E-15, 30.00000000000000000 ) ) ;
#27 = ADVANCED_FACE ( 'NONE', ( #194 ), #210, .F. ) ;
#28 = FACE_OUTER_BOUND ( 'NONE', #24, .T. ) ;
#29 = CARTESIAN_POINT ( 'NONE',  ( 1.047444401652940007E-13, 0.6499999999999962474, 30.00000000000000000 ) ) ;
#30 = DIRECTION ( 'NONE',  ( 0.0000000000000000000, 1.000000000000000000, 0.0000000000000000000 ) ) ;
#31 = ADVANCED_FACE ( 'NONE', ( #152 ), #56, .F. ) ;
#32 = APPROVAL_DATE_TIME ( #130, #131 ) ;
#33 = PERSON_AND_ORGANIZATION ( #20, #96 ) ;
#34 = AXIS2_PLACEMENT_3D ( 'NONE', #35, #22, #87 ) ;
#35 = CARTESIAN_POINT ( 'NONE',  ( 9.171924993375041236E-16, -3.217078224132248966E-17, 0.2626943724812822456 ) ) ;
#36 = CARTESIAN_POINT ( 'NONE',  ( 9.171924993375041236E-16, -3.217078224132248966E-17, 0.2626943724812822456 ) ) ;
#37 = PRODUCT ( '958006', '958006', '', ( #115 ) ) ;
#38 = APPLICATION_CONTEXT ( 'configuration controlled 3d designs of mechanical parts and assemblies' ) ;
#39 = DIRECTION ( 'NONE',  ( -4.275831445896958607E-31, -1.000000000000000000, -1.224646799147353207E-16 ) ) ;
#40 = ORIENTED_EDGE ( 'NONE', *, *, #188, .F. ) ;
#41 = DIRECTION ( 'NONE',  ( -3.491481338843133355E-15, 1.224646799147353207E-16, -1.000000000000000000 ) ) ;
#42 = DIRECTION ( 'NONE',  ( 0.0000000000000000000, 1.000000000000000000, 0.0000000000000000000 ) ) ;
#43 = CC_DESIGN_DATE_AND_TIME_ASSIGNMENT ( #166, #50, ( #45 ) ) ;
#44 = DIRECTION ( 'NONE',  ( -3.491481338843133355E-15, 1.224646799147353207E-16, -1.000000000000000000 ) ) ;
#45 = SECURITY_CLASSIFICATION ( '', '', #18 ) ;
#46 = PERSON_AND_ORGANIZATION ( #20, #96 ) ;
#47 = CALENDAR_DATE ( 2021, 8, 10 ) ;
#48 = CONICAL_SURFACE ( 'NONE', #34, 0.4549999999999991829, 1.047197551196592746 ) ;
#49 = AXIS2_PLACEMENT_3D ( 'NONE', #10, #160, #39 ) ;
#50 = DATE_TIME_ROLE ( 'classification_date' ) ;
#51 = UNCERTAINTY_MEASURE_WITH_UNIT (LENGTH_MEASURE( 1.000000000000000082E-05 ), #199, 'distance_accuracy_value', 'NONE');
#52 = DIRECTION ( 'NONE',  ( 0.0000000000000000000, 1.000000000000000000, 0.0000000000000000000 ) ) ;
#53 = ORIENTED_EDGE ( 'NONE', *, *, #13, .T. ) ;
#54 = EDGE_LOOP ( 'NONE', ( #88 ) ) ;
#55 = ORIENTED_EDGE ( 'NONE', *, *, #219, .T. ) ;
#56 = PLANE ( 'NONE',  #222 ) ;
#57 =( NAMED_UNIT ( * ) PLANE_ANGLE_UNIT ( ) SI_UNIT ( $, .RADIAN. ) );
#58 = AXIS2_PLACEMENT_3D ( 'NONE', #120, #102, #156 ) ;
#59 = CARTESIAN_POINT ( 'NONE',  ( 9.171924993375043208E-16, 0.4549999999999991274, 0.2626943724812823011 ) ) ;
#60 = DIRECTION ( 'NONE',  ( -3.491481338843133355E-15, 1.224646799147353207E-16, -1.000000000000000000 ) ) ;
#61 = PERSON_AND_ORGANIZATION ( #20, #96 ) ;
#62 = PERSON_AND_ORGANIZATION_ROLE ( 'creator' ) ;
#63 = PRODUCT_DEFINITION_SHAPE ( 'NONE', 'NONE',  #23 ) ;
#64 = DATE_TIME_ROLE ( 'creation_date' ) ;
#65 =( GEOMETRIC_REPRESENTATION_CONTEXT ( 3 ) GLOBAL_UNCERTAINTY_ASSIGNED_CONTEXT ( ( #51 ) ) GLOBAL_UNIT_ASSIGNED_CONTEXT ( ( #199, #57, #218 ) ) REPRESENTATION_CONTEXT ( 'NONE', 'WORKASPACE' ) );
#66 = CARTESIAN_POINT ( 'NONE',  ( 2.657350731218995229E-14, -9.320731664793904953E-16, 7.610954988232820462 ) ) ;
#67 = SHAPE_DEFINITION_REPRESENTATION ( #63, #104 ) ;
#68 = APPROVAL_PERSON_ORGANIZATION ( #46, #131, #184 ) ;
#69 = ORIENTED_EDGE ( 'NONE', *, *, #188, .T. ) ;
#70 = CALENDAR_DATE ( 2021, 8, 10 ) ;
#71 = EDGE_CURVE ( 'NONE', #110, #110, #109, .T. ) ;
#72 = ORIENTED_EDGE ( 'NONE', *, *, #219, .F. ) ;
#73 = DIRECTION ( 'NONE',  ( -3.491481338843133355E-15, 1.224646799147353207E-16, -1.000000000000000000 ) ) ;
#74 = CC_DESIGN_APPROVAL ( #181, ( #23 ) ) ;
#75 = VERTEX_POINT ( 'NONE', #78 ) ;
#76 = APPROVAL ( #112, 'UNSPECIFIED' ) ;
#77 = FACE_BOUND ( 'NONE', #8, .T. ) ;
#78 = CARTESIAN_POINT ( 'NONE',  ( 2.657350731218995229E-14, 0.7499999999999963363, 7.610954988232820462 ) ) ;
#79 = CARTESIAN_POINT ( 'NONE',  ( 0.0000000000000000000, 0.0000000000000000000, 0.0000000000000000000 ) ) ;
#80 = APPROVAL_ROLE ( '' ) ;
#81 = COORDINATED_UNIVERSAL_TIME_OFFSET ( 1, 0, .AHEAD. ) ;
#82 = COORDINATED_UNIVERSAL_TIME_OFFSET ( 1, 0, .AHEAD. ) ;
#83 = CC_DESIGN_PERSON_AND_ORGANIZATION_ASSIGNMENT ( #206, #204, ( #45 ) ) ;
#84 = APPROVAL_PERSON_ORGANIZATION ( #94, #76, #100 ) ;
#85 = APPLICATION_CONTEXT ( 'configuration controlled 3d designs of mechanical parts and assemblies' ) ;
#86 = CC_DESIGN_APPROVAL ( #131, ( #135 ) ) ;
#87 = DIRECTION ( 'NONE',  ( -4.232813064587338840E-31, -1.000000000000000000, -1.191430958775281651E-16 ) ) ;
#88 = ORIENTED_EDGE ( 'NONE', *, *, #111, .T. ) ;
#89 = CARTESIAN_POINT ( 'NONE',  ( 1.047444401652940007E-13, 4.874219293650981803E-33, 30.00000000000000000 ) ) ;
#90 = ORIENTED_EDGE ( 'NONE', *, *, #71, .F. ) ;
#91 = CARTESIAN_POINT ( 'NONE',  ( 1.043952920314096810E-13, -3.661693929450586610E-15, 29.89999999999999858 ) ) ;
#92 = CARTESIAN_POINT ( 'NONE',  ( 1.047444401652940007E-13, -3.673940397442059178E-15, 30.00000000000000000 ) ) ;
#93 = VERTEX_POINT ( 'NONE', #163 ) ;
#94 = PERSON_AND_ORGANIZATION ( #20, #96 ) ;
#95 = CIRCLE ( 'NONE', #203, 0.4550000000000009592 ) ;
#96 = ORGANIZATION ( 'UNSPECIFIED', 'UNSPECIFIED', '' ) ;
#97 = DIRECTION ( 'NONE',  ( 1.000000000000000000, 0.0000000000000000000, 0.0000000000000000000 ) ) ;
#98 = APPROVAL_STATUS ( 'not_yet_approved' ) ;
#99 = ORIENTED_EDGE ( 'NONE', *, *, #164, .F. ) ;
#100 = APPROVAL_ROLE ( '' ) ;
#101 = LOCAL_TIME ( 7, 54, 16.00000000000000000, #169 ) ;
#102 = DIRECTION ( 'NONE',  ( -3.491481338843133355E-15, 1.224646799147353207E-16, -1.000000000000000000 ) ) ;
#103 = EDGE_LOOP ( 'NONE', ( #72 ) ) ;
#104 = ADVANCED_BREP_SHAPE_REPRESENTATION ( '958006', ( #137, #139, #141 ), #65 ) ;
#105 = EDGE_LOOP ( 'NONE', ( #121 ) ) ;
#106 = DIRECTION ( 'NONE',  ( 4.275831445896957731E-31, 1.000000000000000000, 1.224646799147353207E-16 ) ) ;
#107 = FACE_OUTER_BOUND ( 'NONE', #132, .T. ) ;
#108 = VERTEX_POINT ( 'NONE', #197 ) ;
#109 = CIRCLE ( 'NONE', #3, 0.4549999999999991829 ) ;
#110 = VERTEX_POINT ( 'NONE', #59 ) ;
#111 = EDGE_CURVE ( 'NONE', #75, #75, #185, .T. ) ;
#112 = APPROVAL_STATUS ( 'not_yet_approved' ) ;
#113 = AXIS2_PLACEMENT_3D ( 'NONE', #133, #198, #165 ) ;
#114 = CC_DESIGN_PERSON_AND_ORGANIZATION_ASSIGNMENT ( #202, #186, ( #135 ) ) ;
#115 = MECHANICAL_CONTEXT ( 'NONE', #85, 'mechanical' ) ;
#116 = CALENDAR_DATE ( 2021, 8, 10 ) ;
#117 = FACE_OUTER_BOUND ( 'NONE', #175, .T. ) ;
#118 = EDGE_LOOP ( 'NONE', ( #171 ) ) ;
#119 = CC_DESIGN_PERSON_AND_ORGANIZATION_ASSIGNMENT ( #61, #128, ( #135 ) ) ;
#120 = CARTESIAN_POINT ( 'NONE',  ( 2.478951750578624367E-14, -8.694992273946207746E-16, 7.099999999999999645 ) ) ;
#121 = ORIENTED_EDGE ( 'NONE', *, *, #111, .F. ) ;
#122 = DIRECTION ( 'NONE',  ( 4.232813064587338840E-31, 1.000000000000000000, 1.191430958775281651E-16 ) ) ;
#123 = ADVANCED_FACE ( 'NONE', ( #117 ), #48, .T. ) ;
#124 = LOCAL_TIME ( 7, 54, 16.00000000000000000, #81 ) ;
#125 = DIRECTION ( 'NONE',  ( -3.491481338843133355E-15, 1.224646799147353207E-16, -1.000000000000000000 ) ) ;
#126 = AXIS2_PLACEMENT_3D ( 'NONE', #176, #134, #9 ) ;
#127 = CARTESIAN_POINT ( 'NONE',  ( 2.478951750578624367E-14, -8.694992273946207746E-16, 7.099999999999999645 ) ) ;
#128 = PERSON_AND_ORGANIZATION_ROLE ( 'creator' ) ;
#129 = COORDINATED_UNIVERSAL_TIME_OFFSET ( 1, 0, .AHEAD. ) ;
#130 = DATE_AND_TIME ( #116, #189 ) ;
#131 = APPROVAL ( #19, 'UNSPECIFIED' ) ;
#132 = EDGE_LOOP ( 'NONE', ( #90 ) ) ;
#133 = CARTESIAN_POINT ( 'NONE',  ( 2.657350731218995229E-14, -9.320731664793904953E-16, 7.610954988232820462 ) ) ;
#134 = DIRECTION ( 'NONE',  ( 3.491481338843133355E-15, -1.224646799147353207E-16, 1.000000000000000000 ) ) ;
#135 = PRODUCT_DEFINITION_FORMATION_WITH_SPECIFIED_SOURCE ( 'ANY', '', #37, .NOT_KNOWN. ) ;
#136 = ORIENTED_EDGE ( 'NONE', *, *, #164, .T. ) ;
#137 = MANIFOLD_SOLID_BREP ( 'Corps-Déplacer/Copier1[1]', #6 ) ;
#138 = DATE_AND_TIME ( #70, #211 ) ;
#139 = MANIFOLD_SOLID_BREP ( 'Corps-Déplacer/Copier1[2]', #221 ) ;
#140 = CARTESIAN_POINT ( 'NONE',  ( 0.0000000000000000000, 0.0000000000000000000, 0.0000000000000000000 ) ) ;
#141 = AXIS2_PLACEMENT_3D ( 'NONE', #79, #146, #97 ) ;
#142 = FACE_OUTER_BOUND ( 'NONE', #195, .T. ) ;
#143 = PRODUCT_RELATED_PRODUCT_CATEGORY ( 'detail', '', ( #37 ) ) ;
#144 = CARTESIAN_POINT ( 'NONE',  ( 0.0000000000000000000, 0.0000000000000000000, 0.0000000000000000000 ) ) ;
#145 = AXIS2_PLACEMENT_3D ( 'NONE', #26, #44, #42 ) ;
#146 = DIRECTION ( 'NONE',  ( 0.0000000000000000000, 0.0000000000000000000, 1.000000000000000000 ) ) ;
#147 = DATE_AND_TIME ( #47, #124 ) ;
#148 = PERSON_AND_ORGANIZATION ( #20, #96 ) ;
#149 = ADVANCED_FACE ( 'NONE', ( #155, #7 ), #179, .T. ) ;
#150 = DATE_AND_TIME ( #1, #159 ) ;
#151 = AXIS2_PLACEMENT_3D ( 'NONE', #144, #60, #16 ) ;
#152 = FACE_OUTER_BOUND ( 'NONE', #157, .T. ) ;
#153 = AXIS2_PLACEMENT_3D ( 'NONE', #91, #125, #30 ) ;
#154 = CIRCLE ( 'NONE', #58, 0.4550000000000009592 ) ;
#155 = FACE_BOUND ( 'NONE', #118, .T. ) ;
#156 = DIRECTION ( 'NONE',  ( 0.0000000000000000000, 1.000000000000000000, 0.0000000000000000000 ) ) ;
#157 = EDGE_LOOP ( 'NONE', ( #40 ) ) ;
#158 = COORDINATED_UNIVERSAL_TIME_OFFSET ( 1, 0, .AHEAD. ) ;
#159 = LOCAL_TIME ( 7, 54, 16.00000000000000000, #82 ) ;
#160 = DIRECTION ( 'NONE',  ( 3.491481338843133355E-15, -1.224646799147353207E-16, 1.000000000000000000 ) ) ;
#161 = DIRECTION ( 'NONE',  ( 0.0000000000000000000, 1.000000000000000000, 0.0000000000000000000 ) ) ;
#162 = CC_DESIGN_APPROVAL ( #76, ( #45 ) ) ;
#163 = CARTESIAN_POINT ( 'NONE',  ( 1.043952920314096810E-13, 0.7499999999999962252, 29.89999999999999858 ) ) ;
#164 = EDGE_CURVE ( 'NONE', #108, #108, #95, .T. ) ;
#165 = DIRECTION ( 'NONE',  ( 0.0000000000000000000, -1.000000000000000000, 0.0000000000000000000 ) ) ;
#166 = DATE_AND_TIME ( #187, #101 ) ;
#167 = ADVANCED_FACE ( 'NONE', ( #201, #77 ), #216, .T. ) ;
#168 = APPLICATION_PROTOCOL_DEFINITION ( 'international standard', 'config_control_design', 1994, #38 ) ;
#169 = COORDINATED_UNIVERSAL_TIME_OFFSET ( 1, 0, .AHEAD. ) ;
#170 = AXIS2_PLACEMENT_3D ( 'NONE', #66, #207, #52 ) ;
#171 = ORIENTED_EDGE ( 'NONE', *, *, #13, .F. ) ;
#172 = CC_DESIGN_PERSON_AND_ORGANIZATION_ASSIGNMENT ( #148, #21, ( #37 ) ) ;
#173 = EDGE_LOOP ( 'NONE', ( #53 ) ) ;
#174 = AXIS2_PLACEMENT_3D ( 'NONE', #140, #14, #106 ) ;
#175 = EDGE_LOOP ( 'NONE', ( #209 ) ) ;
#176 = CARTESIAN_POINT ( 'NONE',  ( 2.478951750578624367E-14, 3.411953505555720858E-33, 7.099999999999999645 ) ) ;
#177 = FACE_OUTER_BOUND ( 'NONE', #213, .T. ) ;
#178 = CC_DESIGN_DATE_AND_TIME_ASSIGNMENT ( #147, #64, ( #23 ) ) ;
#179 = CONICAL_SURFACE ( 'NONE', #113, 0.7499999999999973355, 0.5235987755982914882 ) ;
#180 = DIRECTION ( 'NONE',  ( 0.0000000000000000000, 1.000000000000000000, 0.0000000000000000000 ) ) ;
#181 = APPROVAL ( #98, 'UNSPECIFIED' ) ;
#182 = VERTEX_POINT ( 'NONE', #29 ) ;
#183 = APPLICATION_PROTOCOL_DEFINITION ( 'international standard', 'config_control_design', 1994, #85 ) ;
#184 = APPROVAL_ROLE ( '' ) ;
#185 = CIRCLE ( 'NONE', #170, 0.7499999999999973355 ) ;
#186 = PERSON_AND_ORGANIZATION_ROLE ( 'design_supplier' ) ;
#187 = CALENDAR_DATE ( 2021, 8, 10 ) ;
#188 = EDGE_CURVE ( 'NONE', #182, #182, #196, .T. ) ;
#189 = LOCAL_TIME ( 7, 54, 16.00000000000000000, #129 ) ;
#190 = DESIGN_CONTEXT ( 'detailed design', #38, 'design' ) ;
#191 = PLANE ( 'NONE',  #126 ) ;
#192 = ADVANCED_FACE ( 'NONE', ( #217, #142 ), #15, .T. ) ;
#193 = AXIS2_PLACEMENT_3D ( 'NONE', #92, #73, #180 ) ;
#194 = FACE_OUTER_BOUND ( 'NONE', #173, .T. ) ;
#195 = EDGE_LOOP ( 'NONE', ( #55 ) ) ;
#196 = CIRCLE ( 'NONE', #145, 0.6500000000000000222 ) ;
#197 = CARTESIAN_POINT ( 'NONE',  ( 2.478951750578624367E-14, 0.4550000000000001266, 7.099999999999999645 ) ) ;
#198 = DIRECTION ( 'NONE',  ( 3.491481338843133355E-15, -1.224646799147353207E-16, 1.000000000000000000 ) ) ;
#199 =( LENGTH_UNIT ( ) NAMED_UNIT ( * ) SI_UNIT ( .MILLI., .METRE. ) );
#200 = CC_DESIGN_SECURITY_CLASSIFICATION ( #45, ( #135 ) ) ;
#201 = FACE_OUTER_BOUND ( 'NONE', #103, .T. ) ;
#202 = PERSON_AND_ORGANIZATION ( #20, #96 ) ;
#203 = AXIS2_PLACEMENT_3D ( 'NONE', #127, #41, #161 ) ;
#204 = PERSON_AND_ORGANIZATION_ROLE ( 'classification_officer' ) ;
#205 = CC_DESIGN_PERSON_AND_ORGANIZATION_ASSIGNMENT ( #33, #62, ( #23 ) ) ;
#206 = PERSON_AND_ORGANIZATION ( #20, #96 ) ;
#207 = DIRECTION ( 'NONE',  ( -3.491481338843133355E-15, 1.224646799147353207E-16, -1.000000000000000000 ) ) ;
#208 = ADVANCED_FACE ( 'NONE', ( #107, #28 ), #12, .T. ) ;
#209 = ORIENTED_EDGE ( 'NONE', *, *, #71, .T. ) ;
#210 = PLANE ( 'NONE',  #49 ) ;
#211 = LOCAL_TIME ( 7, 54, 16.00000000000000000, #158 ) ;
#212 = APPROVAL_DATE_TIME ( #138, #76 ) ;
#213 = EDGE_LOOP ( 'NONE', ( #99 ) ) ;
#214 = DIRECTION ( 'NONE',  ( 4.275831445896958607E-31, 1.000000000000000000, 1.224646799147353207E-16 ) ) ;
#215 = VERTEX_POINT ( 'NONE', #220 ) ;
#216 = CONICAL_SURFACE ( 'NONE', #193, 0.6500000000000000222, 0.7853981633974510546 ) ;
#217 = FACE_OUTER_BOUND ( 'NONE', #105, .T. ) ;
#218 =( NAMED_UNIT ( * ) SI_UNIT ( $, .STERADIAN. ) SOLID_ANGLE_UNIT ( ) );
#219 = EDGE_CURVE ( 'NONE', #93, #93, #17, .T. ) ;
#220 = CARTESIAN_POINT ( 'NONE',  ( 2.478951750578624367E-14, 0.4550000000000001266, 7.099999999999999645 ) ) ;
#221 = CLOSED_SHELL ( 'NONE', ( #123, #208, #11 ) ) ;
#222 = AXIS2_PLACEMENT_3D ( 'NONE', #89, #25, #214 ) ;
#223 = PERSON_AND_ORGANIZATION ( #20, #96 ) ;
ENDSEC;
END-ISO-10303-21;
