ISO-10303-21;
HEADER;
FILE_DESCRIPTION (( 'STEP AP203' ),
    '1' );
FILE_NAME ('958004.step',
    '2021-10-08T08:13:06',
    ( '' ),
    ( '' ),
    'SwSTEP 2.0',
    'SolidWorks 2019',
    '' );
FILE_SCHEMA (( 'CONFIG_CONTROL_DESIGN' ));
ENDSEC;

DATA;
#1 = FACE_OUTER_BOUND ( 'NONE', #213, .T. ) ;
#2 = APPROVAL_PERSON_ORGANIZATION ( #165, #58, #102 ) ;
#3 = FACE_OUTER_BOUND ( 'NONE', #22, .T. ) ;
#4 = APPROVAL_ROLE ( '' ) ;
#5 = AXIS2_PLACEMENT_3D ( 'NONE', #188, #28, #119 ) ;
#6 = APPROVAL_DATE_TIME ( #202, #52 ) ;
#7 = APPROVAL_STATUS ( 'not_yet_approved' ) ;
#8 = CC_DESIGN_PERSON_AND_ORGANIZATION_ASSIGNMENT ( #96, #9, ( #101 ) ) ;
#9 = PERSON_AND_ORGANIZATION_ROLE ( 'creator' ) ;
#10 = EDGE_LOOP ( 'NONE', ( #199 ) ) ;
#11 = APPROVAL_STATUS ( 'not_yet_approved' ) ;
#12 = DIRECTION ( 'NONE',  ( 0.0000000000000000000, -1.000000000000000000, 0.0000000000000000000 ) ) ;
#13 = AXIS2_PLACEMENT_3D ( 'NONE', #36, #208, #154 ) ;
#14 = EDGE_LOOP ( 'NONE', ( #89 ) ) ;
#15 = AXIS2_PLACEMENT_3D ( 'NONE', #109, #75, #67 ) ;
#16 = EDGE_CURVE ( 'NONE', #92, #92, #23, .T. ) ;
#17 = APPLICATION_CONTEXT ( 'configuration controlled 3d designs of mechanical parts and assemblies' ) ;
#18 = ORIENTED_EDGE ( 'NONE', *, *, #181, .F. ) ;
#19 = DIRECTION ( 'NONE',  ( -3.491481338843133355E-15, 1.224646799147353207E-16, -1.000000000000000000 ) ) ;
#20 = CIRCLE ( 'NONE', #127, 0.4600000000000003531 ) ;
#21 = UNCERTAINTY_MEASURE_WITH_UNIT (LENGTH_MEASURE( 1.000000000000000082E-05 ), #171, 'distance_accuracy_value', 'NONE');
#22 = EDGE_LOOP ( 'NONE', ( #133 ) ) ;
#23 = CIRCLE ( 'NONE', #174, 0.4600000000000003531 ) ;
#24 = AXIS2_PLACEMENT_3D ( 'NONE', #189, #86, #155 ) ;
#25 = APPROVAL_DATE_TIME ( #178, #121 ) ;
#26 = CARTESIAN_POINT ( 'NONE',  ( 2.654327019682718040E-14, 0.7499999999999963363, 7.602294734194976478 ) ) ;
#27 = CALENDAR_DATE ( 2021, 8, 10 ) ;
#28 = DIRECTION ( 'NONE',  ( 3.491481338843133355E-15, -1.224646799147353207E-16, 1.000000000000000000 ) ) ;
#29 = DIRECTION ( 'NONE',  ( -3.491481338843133355E-15, 1.224646799147353207E-16, -1.000000000000000000 ) ) ;
#30 = CALENDAR_DATE ( 2021, 8, 10 ) ;
#31 = CARTESIAN_POINT ( 'NONE',  ( 1.047444401652940007E-13, -3.673940397442059178E-15, 30.00000000000000000 ) ) ;
#32 = LOCAL_TIME ( 10, 13, 6.000000000000000000, #187 ) ;
#33 = SECURITY_CLASSIFICATION ( '', '', #94 ) ;
#34 = FACE_OUTER_BOUND ( 'NONE', #126, .T. ) ;
#35 = ADVANCED_FACE ( 'NONE', ( #150 ), #222, .T. ) ;
#36 = CARTESIAN_POINT ( 'NONE',  ( 1.047444401652940007E-13, 4.874219293650981803E-33, 30.00000000000000000 ) ) ;
#37 = PLANE ( 'NONE',  #15 ) ;
#38 = AXIS2_PLACEMENT_3D ( 'NONE', #103, #140, #12 ) ;
#39 = SHAPE_DEFINITION_REPRESENTATION ( #162, #60 ) ;
#40 = AXIS2_PLACEMENT_3D ( 'NONE', #120, #19, #193 ) ;
#41 = COORDINATED_UNIVERSAL_TIME_OFFSET ( 1, 0, .AHEAD. ) ;
#42 = PERSON_AND_ORGANIZATION ( #186, #180 ) ;
#43 = DIRECTION ( 'NONE',  ( 0.0000000000000000000, 0.0000000000000000000, 1.000000000000000000 ) ) ;
#44 = CARTESIAN_POINT ( 'NONE',  ( 1.047444401652940007E-13, 0.6499999999999962474, 30.00000000000000000 ) ) ;
#45 = EDGE_LOOP ( 'NONE', ( #217 ) ) ;
#46 = ORIENTED_EDGE ( 'NONE', *, *, #111, .F. ) ;
#47 = APPROVAL_ROLE ( '' ) ;
#48 = ORIENTED_EDGE ( 'NONE', *, *, #181, .T. ) ;
#49 = CC_DESIGN_PERSON_AND_ORGANIZATION_ASSIGNMENT ( #79, #184, ( #105 ) ) ;
#50 = DIRECTION ( 'NONE',  ( 0.0000000000000000000, 1.000000000000000000, 0.0000000000000000000 ) ) ;
#51 = APPROVAL_PERSON_ORGANIZATION ( #128, #121, #4 ) ;
#52 = APPROVAL ( #7, 'UNSPECIFIED' ) ;
#53 = EDGE_LOOP ( 'NONE', ( #68 ) ) ;
#54 = EDGE_CURVE ( 'NONE', #205, #205, #20, .T. ) ;
#55 = CARTESIAN_POINT ( 'NONE',  ( 0.0000000000000000000, 0.0000000000000000000, 0.0000000000000000000 ) ) ;
#56 = CLOSED_SHELL ( 'NONE', ( #76, #204, #35 ) ) ;
#57 = APPLICATION_CONTEXT ( 'configuration controlled 3d designs of mechanical parts and assemblies' ) ;
#58 = APPROVAL ( #11, 'UNSPECIFIED' ) ;
#59 = DATE_TIME_ROLE ( 'classification_date' ) ;
#60 = ADVANCED_BREP_SHAPE_REPRESENTATION ( '958004', ( #104, #176, #90 ), #88 ) ;
#61 = ORIENTED_EDGE ( 'NONE', *, *, #210, .T. ) ;
#62 = CIRCLE ( 'NONE', #146, 0.7499999999999973355 ) ;
#63 = DATE_AND_TIME ( #91, #157 ) ;
#64 = DIRECTION ( 'NONE',  ( 1.000000000000000000, 0.0000000000000000000, 0.0000000000000000000 ) ) ;
#65 = CALENDAR_DATE ( 2021, 8, 10 ) ;
#66 = CARTESIAN_POINT ( 'NONE',  ( 0.0000000000000000000, 0.0000000000000000000, 0.0000000000000000000 ) ) ;
#67 = DIRECTION ( 'NONE',  ( -4.275831445896958607E-31, -1.000000000000000000, -1.224646799147353207E-16 ) ) ;
#68 = ORIENTED_EDGE ( 'NONE', *, *, #190, .T. ) ;
#69 = CARTESIAN_POINT ( 'NONE',  ( 2.478951750578624367E-14, 0.4599999999999994649, 7.099999999999999645 ) ) ;
#70 = CYLINDRICAL_SURFACE ( 'NONE', #211, 0.7499999999999986677 ) ;
#71 = MECHANICAL_CONTEXT ( 'NONE', #17, 'mechanical' ) ;
#72 = EDGE_LOOP ( 'NONE', ( #195 ) ) ;
#73 = AXIS2_PLACEMENT_3D ( 'NONE', #31, #175, #192 ) ;
#74 = CC_DESIGN_APPROVAL ( #52, ( #105 ) ) ;
#75 = DIRECTION ( 'NONE',  ( 3.491481338843133355E-15, -1.224646799147353207E-16, 1.000000000000000000 ) ) ;
#76 = ADVANCED_FACE ( 'NONE', ( #106 ), #137, .T. ) ;
#77 = CIRCLE ( 'NONE', #194, 0.7500000000000000000 ) ;
#78 = CC_DESIGN_PERSON_AND_ORGANIZATION_ASSIGNMENT ( #99, #167, ( #135 ) ) ;
#79 = PERSON_AND_ORGANIZATION ( #186, #180 ) ;
#80 =( NAMED_UNIT ( * ) SI_UNIT ( $, .STERADIAN. ) SOLID_ANGLE_UNIT ( ) );
#81 = DIRECTION ( 'NONE',  ( 0.0000000000000000000, 1.000000000000000000, 0.0000000000000000000 ) ) ;
#82 = PRODUCT_RELATED_PRODUCT_CATEGORY ( 'detail', '', ( #135 ) ) ;
#83 = DATE_TIME_ROLE ( 'creation_date' ) ;
#84 = EDGE_LOOP ( 'NONE', ( #18 ) ) ;
#85 = DIRECTION ( 'NONE',  ( -3.491481338843133355E-15, 1.224646799147353207E-16, -1.000000000000000000 ) ) ;
#86 = DIRECTION ( 'NONE',  ( 3.491481338843133355E-15, -1.224646799147353207E-16, 1.000000000000000000 ) ) ;
#87 = DIRECTION ( 'NONE',  ( -3.491481338843133355E-15, 1.224646799147353207E-16, -1.000000000000000000 ) ) ;
#88 =( GEOMETRIC_REPRESENTATION_CONTEXT ( 3 ) GLOBAL_UNCERTAINTY_ASSIGNED_CONTEXT ( ( #21 ) ) GLOBAL_UNIT_ASSIGNED_CONTEXT ( ( #171, #149, #80 ) ) REPRESENTATION_CONTEXT ( 'NONE', 'WORKASPACE' ) );
#89 = ORIENTED_EDGE ( 'NONE', *, *, #111, .T. ) ;
#90 = AXIS2_PLACEMENT_3D ( 'NONE', #66, #43, #64 ) ;
#91 = CALENDAR_DATE ( 2021, 8, 10 ) ;
#92 = VERTEX_POINT ( 'NONE', #201 ) ;
#93 = CONICAL_SURFACE ( 'NONE', #38, 0.7499999999999973355, 0.5235987755982922653 ) ;
#94 = SECURITY_CLASSIFICATION_LEVEL ( 'unclassified' ) ;
#95 = DATE_AND_TIME ( #30, #198 ) ;
#96 = PERSON_AND_ORGANIZATION ( #186, #180 ) ;
#97 = CARTESIAN_POINT ( 'NONE',  ( 2.478951750578624367E-14, -8.694992273946207746E-16, 7.099999999999999645 ) ) ;
#98 = ADVANCED_FACE ( 'NONE', ( #203 ), #132, .F. ) ;
#99 = PERSON_AND_ORGANIZATION ( #186, #180 ) ;
#100 = DIRECTION ( 'NONE',  ( -3.491481338843133355E-15, 1.224646799147353207E-16, -1.000000000000000000 ) ) ;
#101 = PRODUCT_DEFINITION_FORMATION_WITH_SPECIFIED_SOURCE ( 'ANY', '', #135, .NOT_KNOWN. ) ;
#102 = APPROVAL_ROLE ( '' ) ;
#103 = CARTESIAN_POINT ( 'NONE',  ( 2.654327019682718040E-14, -9.310125912406656483E-16, 7.602294734194976478 ) ) ;
#104 = MANIFOLD_SOLID_BREP ( 'Corps-Déplacer/Copier1[1]', #156 ) ;
#105 = PRODUCT_DEFINITION ( 'UNKNOWN', '', #101, #139 ) ;
#106 = FACE_OUTER_BOUND ( 'NONE', #14, .T. ) ;
#107 = ADVANCED_FACE ( 'NONE', ( #136, #1 ), #93, .T. ) ;
#108 = FACE_OUTER_BOUND ( 'NONE', #72, .T. ) ;
#109 = CARTESIAN_POINT ( 'NONE',  ( 2.478951750578624367E-14, 3.449447500122262098E-33, 7.099999999999999645 ) ) ;
#110 = CIRCLE ( 'NONE', #40, 0.6500000000000000222 ) ;
#111 = EDGE_CURVE ( 'NONE', #145, #145, #185, .T. ) ;
#112 = CALENDAR_DATE ( 2021, 8, 10 ) ;
#113 = AXIS2_PLACEMENT_3D ( 'NONE', #55, #87, #158 ) ;
#114 = COORDINATED_UNIVERSAL_TIME_OFFSET ( 1, 0, .AHEAD. ) ;
#115 = ORIENTED_EDGE ( 'NONE', *, *, #190, .F. ) ;
#116 = APPLICATION_PROTOCOL_DEFINITION ( 'international standard', 'config_control_design', 1994, #17 ) ;
#117 = CARTESIAN_POINT ( 'NONE',  ( 2.478951750578624367E-14, -8.694992273946207746E-16, 7.099999999999999645 ) ) ;
#118 = VERTEX_POINT ( 'NONE', #26 ) ;
#119 = DIRECTION ( 'NONE',  ( -4.186804226928780829E-31, -1.000000000000000000, -1.178480622266854682E-16 ) ) ;
#120 = CARTESIAN_POINT ( 'NONE',  ( 1.047444401652940007E-13, -3.673940397442059178E-15, 30.00000000000000000 ) ) ;
#121 = APPROVAL ( #215, 'UNSPECIFIED' ) ;
#122 = LOCAL_TIME ( 10, 13, 6.000000000000000000, #41 ) ;
#123 = FACE_OUTER_BOUND ( 'NONE', #84, .T. ) ;
#124 = DIRECTION ( 'NONE',  ( 0.0000000000000000000, 1.000000000000000000, 0.0000000000000000000 ) ) ;
#125 = CONICAL_SURFACE ( 'NONE', #73, 0.6500000000000000222, 0.7853981633974516097 ) ;
#126 = EDGE_LOOP ( 'NONE', ( #46 ) ) ;
#127 = AXIS2_PLACEMENT_3D ( 'NONE', #97, #29, #81 ) ;
#128 = PERSON_AND_ORGANIZATION ( #186, #180 ) ;
#129 = DATE_AND_TIME ( #27, #32 ) ;
#130 = COORDINATED_UNIVERSAL_TIME_OFFSET ( 1, 0, .AHEAD. ) ;
#131 = VERTEX_POINT ( 'NONE', #164 ) ;
#132 = PLANE ( 'NONE',  #13 ) ;
#133 = ORIENTED_EDGE ( 'NONE', *, *, #54, .T. ) ;
#134 = FACE_BOUND ( 'NONE', #53, .T. ) ;
#135 = PRODUCT ( '958004', '958004', '', ( #71 ) ) ;
#136 = FACE_BOUND ( 'NONE', #173, .T. ) ;
#137 = CONICAL_SURFACE ( 'NONE', #5, 0.4599999999999991873, 1.047197551196592746 ) ;
#138 = CC_DESIGN_DATE_AND_TIME_ASSIGNMENT ( #95, #83, ( #105 ) ) ;
#139 = DESIGN_CONTEXT ( 'detailed design', #57, 'design' ) ;
#140 = DIRECTION ( 'NONE',  ( 3.491481338843133355E-15, -1.224646799147353207E-16, 1.000000000000000000 ) ) ;
#141 = APPROVAL_PERSON_ORGANIZATION ( #191, #52, #47 ) ;
#142 = FACE_OUTER_BOUND ( 'NONE', #45, .T. ) ;
#143 = ADVANCED_FACE ( 'NONE', ( #108, #212 ), #70, .T. ) ;
#144 = ORIENTED_EDGE ( 'NONE', *, *, #54, .F. ) ;
#145 = VERTEX_POINT ( 'NONE', #183 ) ;
#146 = AXIS2_PLACEMENT_3D ( 'NONE', #197, #177, #124 ) ;
#147 = PERSON_AND_ORGANIZATION_ROLE ( 'design_supplier' ) ;
#148 = DIRECTION ( 'NONE',  ( -3.491481338843133355E-15, 1.224646799147353207E-16, -1.000000000000000000 ) ) ;
#149 =( NAMED_UNIT ( * ) PLANE_ANGLE_UNIT ( ) SI_UNIT ( $, .RADIAN. ) );
#150 = FACE_OUTER_BOUND ( 'NONE', #10, .T. ) ;
#151 = CC_DESIGN_APPROVAL ( #121, ( #33 ) ) ;
#152 = VERTEX_POINT ( 'NONE', #44 ) ;
#153 = CARTESIAN_POINT ( 'NONE',  ( 0.0000000000000000000, 0.0000000000000000000, 0.0000000000000000000 ) ) ;
#154 = DIRECTION ( 'NONE',  ( 4.275831445896958607E-31, 1.000000000000000000, 1.224646799147353207E-16 ) ) ;
#155 = DIRECTION ( 'NONE',  ( -4.275831445896958607E-31, -1.000000000000000000, -1.224646799147353207E-16 ) ) ;
#156 = CLOSED_SHELL ( 'NONE', ( #218, #107, #143, #179, #98 ) ) ;
#157 = LOCAL_TIME ( 10, 13, 6.000000000000000000, #216 ) ;
#158 = DIRECTION ( 'NONE',  ( 4.275831445896958607E-31, 1.000000000000000000, 1.224646799147353207E-16 ) ) ;
#159 = CC_DESIGN_APPROVAL ( #58, ( #101 ) ) ;
#160 = CC_DESIGN_PERSON_AND_ORGANIZATION_ASSIGNMENT ( #182, #161, ( #33 ) ) ;
#161 = PERSON_AND_ORGANIZATION_ROLE ( 'classification_officer' ) ;
#162 = PRODUCT_DEFINITION_SHAPE ( 'NONE', 'NONE',  #105 ) ;
#163 = CC_DESIGN_DATE_AND_TIME_ASSIGNMENT ( #63, #59, ( #33 ) ) ;
#164 = CARTESIAN_POINT ( 'NONE',  ( 1.043952920314096810E-13, 0.7499999999999963363, 29.89999999999999858 ) ) ;
#165 = PERSON_AND_ORGANIZATION ( #186, #180 ) ;
#166 = EDGE_LOOP ( 'NONE', ( #115 ) ) ;
#167 = PERSON_AND_ORGANIZATION_ROLE ( 'design_owner' ) ;
#168 = DIRECTION ( 'NONE',  ( 4.275831445896959482E-31, 1.000000000000000000, 1.224646799147353207E-16 ) ) ;
#169 = LOCAL_TIME ( 10, 13, 6.000000000000000000, #130 ) ;
#170 = CC_DESIGN_PERSON_AND_ORGANIZATION_ASSIGNMENT ( #42, #147, ( #101 ) ) ;
#171 =( LENGTH_UNIT ( ) NAMED_UNIT ( * ) SI_UNIT ( .MILLI., .METRE. ) );
#172 = CARTESIAN_POINT ( 'NONE',  ( 9.272715377917624714E-16, -3.252430732089745510E-17, 0.2655811238272304253 ) ) ;
#173 = EDGE_LOOP ( 'NONE', ( #144 ) ) ;
#174 = AXIS2_PLACEMENT_3D ( 'NONE', #117, #85, #206 ) ;
#175 = DIRECTION ( 'NONE',  ( -3.491481338843133355E-15, 1.224646799147353207E-16, -1.000000000000000000 ) ) ;
#176 = MANIFOLD_SOLID_BREP ( 'Corps-Déplacer/Copier1[2]', #56 ) ;
#177 = DIRECTION ( 'NONE',  ( -3.491481338843133355E-15, 1.224646799147353207E-16, -1.000000000000000000 ) ) ;
#178 = DATE_AND_TIME ( #65, #122 ) ;
#179 = ADVANCED_FACE ( 'NONE', ( #123, #134 ), #125, .T. ) ;
#180 = ORGANIZATION ( 'UNSPECIFIED', 'UNSPECIFIED', '' ) ;
#181 = EDGE_CURVE ( 'NONE', #131, #131, #77, .T. ) ;
#182 = PERSON_AND_ORGANIZATION ( #186, #180 ) ;
#183 = CARTESIAN_POINT ( 'NONE',  ( 9.272715377917626686E-16, 0.4599999999999991318, 0.2655811238272304808 ) ) ;
#184 = PERSON_AND_ORGANIZATION_ROLE ( 'creator' ) ;
#185 = CIRCLE ( 'NONE', #220, 0.4599999999999991873 ) ;
#186 = PERSON ( 'UNSPECIFIED', 'UNSPECIFIED', 'UNSPECIFIED', ('UNSPECIFIED'), ('UNSPECIFIED'), ('UNSPECIFIED') ) ;
#187 = COORDINATED_UNIVERSAL_TIME_OFFSET ( 1, 0, .AHEAD. ) ;
#188 = CARTESIAN_POINT ( 'NONE',  ( 9.272715377917624714E-16, -3.252430732089745510E-17, 0.2655811238272304253 ) ) ;
#189 = CARTESIAN_POINT ( 'NONE',  ( 2.478951750578624367E-14, 3.449447500122262098E-33, 7.099999999999999645 ) ) ;
#190 = EDGE_CURVE ( 'NONE', #152, #152, #110, .T. ) ;
#191 = PERSON_AND_ORGANIZATION ( #186, #180 ) ;
#192 = DIRECTION ( 'NONE',  ( 0.0000000000000000000, 1.000000000000000000, 0.0000000000000000000 ) ) ;
#193 = DIRECTION ( 'NONE',  ( 0.0000000000000000000, 1.000000000000000000, 0.0000000000000000000 ) ) ;
#194 = AXIS2_PLACEMENT_3D ( 'NONE', #223, #209, #50 ) ;
#195 = ORIENTED_EDGE ( 'NONE', *, *, #210, .F. ) ;
#196 = EDGE_LOOP ( 'NONE', ( #48 ) ) ;
#197 = CARTESIAN_POINT ( 'NONE',  ( 2.654327019682718040E-14, -9.310125912406656483E-16, 7.602294734194976478 ) ) ;
#198 = LOCAL_TIME ( 10, 13, 6.000000000000000000, #114 ) ;
#199 = ORIENTED_EDGE ( 'NONE', *, *, #16, .F. ) ;
#200 = APPROVAL_DATE_TIME ( #129, #58 ) ;
#201 = CARTESIAN_POINT ( 'NONE',  ( 2.478951750578624367E-14, 0.4599999999999994649, 7.099999999999999645 ) ) ;
#202 = DATE_AND_TIME ( #112, #169 ) ;
#203 = FACE_OUTER_BOUND ( 'NONE', #166, .T. ) ;
#204 = ADVANCED_FACE ( 'NONE', ( #34, #142 ), #214, .T. ) ;
#205 = VERTEX_POINT ( 'NONE', #69 ) ;
#206 = DIRECTION ( 'NONE',  ( 0.0000000000000000000, 1.000000000000000000, 0.0000000000000000000 ) ) ;
#207 = APPLICATION_PROTOCOL_DEFINITION ( 'international standard', 'config_control_design', 1994, #57 ) ;
#208 = DIRECTION ( 'NONE',  ( -3.491481338843133355E-15, 1.224646799147353207E-16, -1.000000000000000000 ) ) ;
#209 = DIRECTION ( 'NONE',  ( -3.491481338843133355E-15, 1.224646799147353207E-16, -1.000000000000000000 ) ) ;
#210 = EDGE_CURVE ( 'NONE', #118, #118, #62, .T. ) ;
#211 = AXIS2_PLACEMENT_3D ( 'NONE', #153, #100, #168 ) ;
#212 = FACE_OUTER_BOUND ( 'NONE', #196, .T. ) ;
#213 = EDGE_LOOP ( 'NONE', ( #61 ) ) ;
#214 = CYLINDRICAL_SURFACE ( 'NONE', #113, 0.4599999999999997979 ) ;
#215 = APPROVAL_STATUS ( 'not_yet_approved' ) ;
#216 = COORDINATED_UNIVERSAL_TIME_OFFSET ( 1, 0, .AHEAD. ) ;
#217 = ORIENTED_EDGE ( 'NONE', *, *, #16, .T. ) ;
#218 = ADVANCED_FACE ( 'NONE', ( #3 ), #37, .F. ) ;
#219 = DIRECTION ( 'NONE',  ( 4.186804226928780829E-31, 1.000000000000000000, 1.178480622266854682E-16 ) ) ;
#220 = AXIS2_PLACEMENT_3D ( 'NONE', #172, #148, #219 ) ;
#221 = CC_DESIGN_SECURITY_CLASSIFICATION ( #33, ( #101 ) ) ;
#222 = PLANE ( 'NONE',  #24 ) ;
#223 = CARTESIAN_POINT ( 'NONE',  ( 1.043952920314096810E-13, -3.661693929450586610E-15, 29.89999999999999858 ) ) ;
ENDSEC;
END-ISO-10303-21;
