ISO-10303-21;
HEADER;
FILE_DESCRIPTION (( 'STEP AP203' ),
    '1' );
FILE_NAME ('958002.step',
    '2021-10-08T08:13:05',
    ( '' ),
    ( '' ),
    'SwSTEP 2.0',
    'SolidWorks 2019',
    '' );
FILE_SCHEMA (( 'CONFIG_CONTROL_DESIGN' ));
ENDSEC;

DATA;
#1 = EDGE_LOOP ( 'NONE', ( #212 ) ) ;
#2 = PRODUCT_RELATED_PRODUCT_CATEGORY ( 'detail', '', ( #102 ) ) ;
#3 = VERTEX_POINT ( 'NONE', #66 ) ;
#4 = EDGE_CURVE ( 'NONE', #156, #156, #154, .T. ) ;
#5 = AXIS2_PLACEMENT_3D ( 'NONE', #173, #211, #49 ) ;
#6 = DATE_AND_TIME ( #60, #174 ) ;
#7 = DIRECTION ( 'NONE',  ( -3.491481338843133355E-15, 1.224646799147353207E-16, -1.000000000000000000 ) ) ;
#8 = CC_DESIGN_DATE_AND_TIME_ASSIGNMENT ( #38, #22, ( #175 ) ) ;
#9 = AXIS2_PLACEMENT_3D ( 'NONE', #187, #25, #108 ) ;
#10 = PERSON_AND_ORGANIZATION ( #144, #31 ) ;
#11 = PLANE ( 'NONE',  #136 ) ;
#12 = CYLINDRICAL_SURFACE ( 'NONE', #192, 0.4399999999999995026 ) ;
#13 = EDGE_CURVE ( 'NONE', #3, #3, #29, .T. ) ;
#14 = EDGE_LOOP ( 'NONE', ( #27 ) ) ;
#15 = APPLICATION_CONTEXT ( 'configuration controlled 3d designs of mechanical parts and assemblies' ) ;
#16 = MANIFOLD_SOLID_BREP ( 'Corps-Déplacer/Copier1[1]', #135 ) ;
#17 = PLANE ( 'NONE',  #115 ) ;
#18 = AXIS2_PLACEMENT_3D ( 'NONE', #209, #48, #116 ) ;
#19 = ORIENTED_EDGE ( 'NONE', *, *, #13, .T. ) ;
#20 = APPLICATION_PROTOCOL_DEFINITION ( 'international standard', 'config_control_design', 1994, #15 ) ;
#21 = CARTESIAN_POINT ( 'NONE',  ( 2.478951750578624367E-14, 0.4399999999999990030, 7.099999999999999645 ) ) ;
#22 = DATE_TIME_ROLE ( 'classification_date' ) ;
#23 = FACE_OUTER_BOUND ( 'NONE', #62, .T. ) ;
#24 = ADVANCED_FACE ( 'NONE', ( #134 ), #11, .F. ) ;
#25 = DIRECTION ( 'NONE',  ( -3.491481338843133355E-15, 1.224646799147353207E-16, -1.000000000000000000 ) ) ;
#26 = CARTESIAN_POINT ( 'NONE',  ( 0.0000000000000000000, 0.0000000000000000000, 0.0000000000000000000 ) ) ;
#27 = ORIENTED_EDGE ( 'NONE', *, *, #214, .T. ) ;
#28 = CARTESIAN_POINT ( 'NONE',  ( 1.043952920314096810E-13, -3.661693929450586610E-15, 29.89999999999999858 ) ) ;
#29 = CIRCLE ( 'NONE', #185, 0.4399999999999992251 ) ;
#30 = ADVANCED_FACE ( 'NONE', ( #75 ), #208, .T. ) ;
#31 = ORGANIZATION ( 'UNSPECIFIED', 'UNSPECIFIED', '' ) ;
#32 = FACE_BOUND ( 'NONE', #1, .T. ) ;
#33 = CARTESIAN_POINT ( 'NONE',  ( 2.478951750578624367E-14, 0.4399999999999990030, 7.099999999999999645 ) ) ;
#34 = CIRCLE ( 'NONE', #100, 0.6500000000000000222 ) ;
#35 = APPROVAL ( #159, 'UNSPECIFIED' ) ;
#36 = APPROVAL_DATE_TIME ( #161, #35 ) ;
#37 = APPROVAL_STATUS ( 'not_yet_approved' ) ;
#38 = DATE_AND_TIME ( #216, #101 ) ;
#39 = CYLINDRICAL_SURFACE ( 'NONE', #155, 0.7499999999999986677 ) ;
#40 = UNCERTAINTY_MEASURE_WITH_UNIT (LENGTH_MEASURE( 1.000000000000000082E-05 ), #56, 'distance_accuracy_value', 'NONE');
#41 = CARTESIAN_POINT ( 'NONE',  ( 2.666421865827828057E-14, 0.7499999999999963363, 7.636935750346354190 ) ) ;
#42 = DIRECTION ( 'NONE',  ( -3.491481338843133355E-15, 1.224646799147353207E-16, -1.000000000000000000 ) ) ;
#43 = COORDINATED_UNIVERSAL_TIME_OFFSET ( 1, 0, .AHEAD. ) ;
#44 = ORIENTED_EDGE ( 'NONE', *, *, #182, .F. ) ;
#45 = CONICAL_SURFACE ( 'NONE', #70, 0.6500000000000000222, 0.7853981633974516097 ) ;
#46 = DIRECTION ( 'NONE',  ( -3.491481338843133355E-15, 1.224646799147353207E-16, -1.000000000000000000 ) ) ;
#47 = PRODUCT_DEFINITION ( 'UNKNOWN', '', #186, #201 ) ;
#48 = DIRECTION ( 'NONE',  ( 3.491481338843133355E-15, -1.224646799147353207E-16, 1.000000000000000000 ) ) ;
#49 = DIRECTION ( 'NONE',  ( 4.275831445896958607E-31, 1.000000000000000000, 1.224646799147353207E-16 ) ) ;
#50 = ORIENTED_EDGE ( 'NONE', *, *, #4, .F. ) ;
#51 = AXIS2_PLACEMENT_3D ( 'NONE', #28, #46, #222 ) ;
#52 = CIRCLE ( 'NONE', #9, 0.4399999999999998357 ) ;
#53 = AXIS2_PLACEMENT_3D ( 'NONE', #26, #90, #109 ) ;
#54 = VERTEX_POINT ( 'NONE', #21 ) ;
#55 = COORDINATED_UNIVERSAL_TIME_OFFSET ( 1, 0, .AHEAD. ) ;
#56 =( LENGTH_UNIT ( ) NAMED_UNIT ( * ) SI_UNIT ( .MILLI., .METRE. ) );
#57 = FACE_BOUND ( 'NONE', #138, .T. ) ;
#58 = APPLICATION_PROTOCOL_DEFINITION ( 'international standard', 'config_control_design', 1994, #204 ) ;
#59 = DIRECTION ( 'NONE',  ( -3.491481338843133355E-15, 1.224646799147353207E-16, -1.000000000000000000 ) ) ;
#60 = CALENDAR_DATE ( 2021, 8, 10 ) ;
#61 = CARTESIAN_POINT ( 'NONE',  ( 1.047444401652940007E-13, -3.673940397442059178E-15, 30.00000000000000000 ) ) ;
#62 = EDGE_LOOP ( 'NONE', ( #44 ) ) ;
#63 = ADVANCED_FACE ( 'NONE', ( #23, #91 ), #39, .T. ) ;
#64 = DIRECTION ( 'NONE',  ( -4.275831445896958607E-31, -1.000000000000000000, -1.224646799147353207E-16 ) ) ;
#65 = ORIENTED_EDGE ( 'NONE', *, *, #86, .F. ) ;
#66 = CARTESIAN_POINT ( 'NONE',  ( 8.869553839747293762E-16, 0.4399999999999991696, 0.2540341184434378174 ) ) ;
#67 = LOCAL_TIME ( 10, 13, 5.000000000000000000, #120 ) ;
#68 = ADVANCED_BREP_SHAPE_REPRESENTATION ( '958002', ( #16, #87, #53 ), #207 ) ;
#69 = VERTEX_POINT ( 'NONE', #41 ) ;
#70 = AXIS2_PLACEMENT_3D ( 'NONE', #98, #146, #179 ) ;
#71 = CC_DESIGN_APPROVAL ( #35, ( #47 ) ) ;
#72 = PERSON_AND_ORGANIZATION_ROLE ( 'creator' ) ;
#73 = EDGE_LOOP ( 'NONE', ( #83 ) ) ;
#74 = MECHANICAL_CONTEXT ( 'NONE', #204, 'mechanical' ) ;
#75 = FACE_OUTER_BOUND ( 'NONE', #122, .T. ) ;
#76 = ORIENTED_EDGE ( 'NONE', *, *, #86, .T. ) ;
#77 = DIRECTION ( 'NONE',  ( 4.275831445896958607E-31, 1.000000000000000000, 1.224646799147353207E-16 ) ) ;
#78 = APPROVAL_PERSON_ORGANIZATION ( #10, #35, #194 ) ;
#79 = ADVANCED_FACE ( 'NONE', ( #131 ), #17, .T. ) ;
#80 = DIRECTION ( 'NONE',  ( 0.0000000000000000000, 1.000000000000000000, 0.0000000000000000000 ) ) ;
#81 = CONICAL_SURFACE ( 'NONE', #18, 0.7499999999999973355, 0.5235987755982928205 ) ;
#82 = CC_DESIGN_APPROVAL ( #121, ( #186 ) ) ;
#83 = ORIENTED_EDGE ( 'NONE', *, *, #4, .T. ) ;
#84 = CC_DESIGN_PERSON_AND_ORGANIZATION_ASSIGNMENT ( #106, #89, ( #175 ) ) ;
#85 = EDGE_LOOP ( 'NONE', ( #104 ) ) ;
#86 = EDGE_CURVE ( 'NONE', #139, #139, #52, .T. ) ;
#87 = MANIFOLD_SOLID_BREP ( 'Corps-Déplacer/Copier1[2]', #124 ) ;
#88 = CIRCLE ( 'NONE', #142, 0.4399999999999998357 ) ;
#89 = PERSON_AND_ORGANIZATION_ROLE ( 'classification_officer' ) ;
#90 = DIRECTION ( 'NONE',  ( 0.0000000000000000000, 0.0000000000000000000, 1.000000000000000000 ) ) ;
#91 = FACE_OUTER_BOUND ( 'NONE', #73, .T. ) ;
#92 = DIRECTION ( 'NONE',  ( -4.377113509970998059E-31, -1.000000000000000000, -1.232047923278984418E-16 ) ) ;
#93 = PERSON_AND_ORGANIZATION_ROLE ( 'design_supplier' ) ;
#94 = CARTESIAN_POINT ( 'NONE',  ( 8.869553839747291790E-16, -3.111020700259756253E-17, 0.2540341184434377619 ) ) ;
#95 = DIRECTION ( 'NONE',  ( -3.491481338843133355E-15, 1.224646799147353207E-16, -1.000000000000000000 ) ) ;
#96 = ADVANCED_FACE ( 'NONE', ( #168, #221 ), #12, .T. ) ;
#97 = LOCAL_TIME ( 10, 13, 5.000000000000000000, #43 ) ;
#98 = CARTESIAN_POINT ( 'NONE',  ( 1.047444401652940007E-13, -3.673940397442059178E-15, 30.00000000000000000 ) ) ;
#99 = CARTESIAN_POINT ( 'NONE',  ( 2.478951750578624367E-14, -8.694992273946207746E-16, 7.099999999999999645 ) ) ;
#100 = AXIS2_PLACEMENT_3D ( 'NONE', #61, #7, #189 ) ;
#101 = LOCAL_TIME ( 10, 13, 5.000000000000000000, #160 ) ;
#102 = PRODUCT ( '958002', '958002', '', ( #74 ) ) ;
#103 = CC_DESIGN_PERSON_AND_ORGANIZATION_ASSIGNMENT ( #107, #177, ( #186 ) ) ;
#104 = ORIENTED_EDGE ( 'NONE', *, *, #13, .F. ) ;
#105 = ADVANCED_FACE ( 'NONE', ( #57, #153 ), #81, .T. ) ;
#106 = PERSON_AND_ORGANIZATION ( #144, #31 ) ;
#107 = PERSON_AND_ORGANIZATION ( #144, #31 ) ;
#108 = DIRECTION ( 'NONE',  ( 0.0000000000000000000, 1.000000000000000000, 0.0000000000000000000 ) ) ;
#109 = DIRECTION ( 'NONE',  ( 1.000000000000000000, 0.0000000000000000000, 0.0000000000000000000 ) ) ;
#110 = PLANE ( 'NONE',  #5 ) ;
#111 = DATE_AND_TIME ( #163, #67 ) ;
#112 = DATE_AND_TIME ( #166, #97 ) ;
#113 = EDGE_LOOP ( 'NONE', ( #65 ) ) ;
#114 = DIRECTION ( 'NONE',  ( 3.491481338843133355E-15, -1.224646799147353207E-16, 1.000000000000000000 ) ) ;
#115 = AXIS2_PLACEMENT_3D ( 'NONE', #205, #114, #150 ) ;
#116 = DIRECTION ( 'NONE',  ( 0.0000000000000000000, -1.000000000000000000, 0.0000000000000000000 ) ) ;
#117 = DIRECTION ( 'NONE',  ( -3.491481338843133355E-15, 1.224646799147353207E-16, -1.000000000000000000 ) ) ;
#118 = APPROVAL_ROLE ( '' ) ;
#119 = APPROVAL_PERSON_ORGANIZATION ( #196, #121, #202 ) ;
#120 = COORDINATED_UNIVERSAL_TIME_OFFSET ( 1, 0, .AHEAD. ) ;
#121 = APPROVAL ( #37, 'UNSPECIFIED' ) ;
#122 = EDGE_LOOP ( 'NONE', ( #19 ) ) ;
#123 = ORIENTED_EDGE ( 'NONE', *, *, #182, .T. ) ;
#124 = CLOSED_SHELL ( 'NONE', ( #30, #96, #79 ) ) ;
#125 = PERSON_AND_ORGANIZATION_ROLE ( 'design_owner' ) ;
#126 = CALENDAR_DATE ( 2021, 8, 10 ) ;
#127 = COORDINATED_UNIVERSAL_TIME_OFFSET ( 1, 0, .AHEAD. ) ;
#128 = ORIENTED_EDGE ( 'NONE', *, *, #147, .F. ) ;
#129 = CC_DESIGN_PERSON_AND_ORGANIZATION_ASSIGNMENT ( #184, #93, ( #186 ) ) ;
#130 = VERTEX_POINT ( 'NONE', #180 ) ;
#131 = FACE_OUTER_BOUND ( 'NONE', #113, .T. ) ;
#132 = DATE_TIME_ROLE ( 'creation_date' ) ;
#133 = DIRECTION ( 'NONE',  ( 3.491481338843133355E-15, -1.224646799147353207E-16, 1.000000000000000000 ) ) ;
#134 = FACE_OUTER_BOUND ( 'NONE', #14, .T. ) ;
#135 = CLOSED_SHELL ( 'NONE', ( #24, #105, #63, #158, #188 ) ) ;
#136 = AXIS2_PLACEMENT_3D ( 'NONE', #197, #167, #64 ) ;
#137 = PERSON_AND_ORGANIZATION ( #144, #31 ) ;
#138 = EDGE_LOOP ( 'NONE', ( #210 ) ) ;
#139 = VERTEX_POINT ( 'NONE', #33 ) ;
#140 = EDGE_LOOP ( 'NONE', ( #123 ) ) ;
#141 = APPROVAL_STATUS ( 'not_yet_approved' ) ;
#142 = AXIS2_PLACEMENT_3D ( 'NONE', #99, #117, #80 ) ;
#143 = CIRCLE ( 'NONE', #206, 0.7499999999999973355 ) ;
#144 = PERSON ( 'UNSPECIFIED', 'UNSPECIFIED', 'UNSPECIFIED', ('UNSPECIFIED'), ('UNSPECIFIED'), ('UNSPECIFIED') ) ;
#145 = SECURITY_CLASSIFICATION_LEVEL ( 'unclassified' ) ;
#146 = DIRECTION ( 'NONE',  ( -3.491481338843133355E-15, 1.224646799147353207E-16, -1.000000000000000000 ) ) ;
#147 = EDGE_CURVE ( 'NONE', #130, #130, #34, .T. ) ;
#148 =( NAMED_UNIT ( * ) SI_UNIT ( $, .STERADIAN. ) SOLID_ANGLE_UNIT ( ) );
#149 = DIRECTION ( 'NONE',  ( 4.377113509970998059E-31, 1.000000000000000000, 1.232047923278984418E-16 ) ) ;
#150 = DIRECTION ( 'NONE',  ( -4.275831445896958607E-31, -1.000000000000000000, -1.224646799147353207E-16 ) ) ;
#151 = APPROVAL_DATE_TIME ( #111, #218 ) ;
#152 = DIRECTION ( 'NONE',  ( 4.275831445896959482E-31, 1.000000000000000000, 1.224646799147353207E-16 ) ) ;
#153 = FACE_OUTER_BOUND ( 'NONE', #140, .T. ) ;
#154 = CIRCLE ( 'NONE', #51, 0.7500000000000000000 ) ;
#155 = AXIS2_PLACEMENT_3D ( 'NONE', #164, #59, #152 ) ;
#156 = VERTEX_POINT ( 'NONE', #191 ) ;
#157 = LOCAL_TIME ( 10, 13, 5.000000000000000000, #55 ) ;
#158 = ADVANCED_FACE ( 'NONE', ( #200, #32 ), #45, .T. ) ;
#159 = APPROVAL_STATUS ( 'not_yet_approved' ) ;
#160 = COORDINATED_UNIVERSAL_TIME_OFFSET ( 1, 0, .AHEAD. ) ;
#161 = DATE_AND_TIME ( #126, #157 ) ;
#162 = FACE_OUTER_BOUND ( 'NONE', #170, .T. ) ;
#163 = CALENDAR_DATE ( 2021, 8, 10 ) ;
#164 = CARTESIAN_POINT ( 'NONE',  ( 0.0000000000000000000, 0.0000000000000000000, 0.0000000000000000000 ) ) ;
#165 = AXIS2_PLACEMENT_3D ( 'NONE', #181, #133, #92 ) ;
#166 = CALENDAR_DATE ( 2021, 8, 10 ) ;
#167 = DIRECTION ( 'NONE',  ( 3.491481338843133355E-15, -1.224646799147353207E-16, 1.000000000000000000 ) ) ;
#168 = FACE_OUTER_BOUND ( 'NONE', #85, .T. ) ;
#169 = APPROVAL_PERSON_ORGANIZATION ( #137, #218, #118 ) ;
#170 = EDGE_LOOP ( 'NONE', ( #128 ) ) ;
#171 = PRODUCT_DEFINITION_SHAPE ( 'NONE', 'NONE',  #47 ) ;
#172 = CARTESIAN_POINT ( 'NONE',  ( 2.666421865827828057E-14, -9.352548921955654308E-16, 7.636935750346354190 ) ) ;
#173 = CARTESIAN_POINT ( 'NONE',  ( 1.047444401652940007E-13, 4.874219293650981803E-33, 30.00000000000000000 ) ) ;
#174 = LOCAL_TIME ( 10, 13, 5.000000000000000000, #127 ) ;
#175 = SECURITY_CLASSIFICATION ( '', '', #145 ) ;
#176 = CC_DESIGN_PERSON_AND_ORGANIZATION_ASSIGNMENT ( #220, #72, ( #47 ) ) ;
#177 = PERSON_AND_ORGANIZATION_ROLE ( 'creator' ) ;
#178 = APPROVAL_DATE_TIME ( #112, #121 ) ;
#179 = DIRECTION ( 'NONE',  ( 0.0000000000000000000, 1.000000000000000000, 0.0000000000000000000 ) ) ;
#180 = CARTESIAN_POINT ( 'NONE',  ( 1.047444401652940007E-13, 0.6499999999999962474, 30.00000000000000000 ) ) ;
#181 = CARTESIAN_POINT ( 'NONE',  ( 8.869553839747291790E-16, -3.111020700259756253E-17, 0.2540341184434377619 ) ) ;
#182 = EDGE_CURVE ( 'NONE', #69, #69, #143, .T. ) ;
#183 = SHAPE_DEFINITION_REPRESENTATION ( #171, #68 ) ;
#184 = PERSON_AND_ORGANIZATION ( #144, #31 ) ;
#185 = AXIS2_PLACEMENT_3D ( 'NONE', #94, #95, #149 ) ;
#186 = PRODUCT_DEFINITION_FORMATION_WITH_SPECIFIED_SOURCE ( 'ANY', '', #102, .NOT_KNOWN. ) ;
#187 = CARTESIAN_POINT ( 'NONE',  ( 2.478951750578624367E-14, -8.694992273946207746E-16, 7.099999999999999645 ) ) ;
#188 = ADVANCED_FACE ( 'NONE', ( #162 ), #110, .F. ) ;
#189 = DIRECTION ( 'NONE',  ( 0.0000000000000000000, 1.000000000000000000, 0.0000000000000000000 ) ) ;
#190 = EDGE_LOOP ( 'NONE', ( #76 ) ) ;
#191 = CARTESIAN_POINT ( 'NONE',  ( 1.043952920314096810E-13, 0.7499999999999963363, 29.89999999999999858 ) ) ;
#192 = AXIS2_PLACEMENT_3D ( 'NONE', #219, #42, #77 ) ;
#193 = EDGE_LOOP ( 'NONE', ( #50 ) ) ;
#194 = APPROVAL_ROLE ( '' ) ;
#195 = CC_DESIGN_PERSON_AND_ORGANIZATION_ASSIGNMENT ( #215, #125, ( #102 ) ) ;
#196 = PERSON_AND_ORGANIZATION ( #144, #31 ) ;
#197 = CARTESIAN_POINT ( 'NONE',  ( 2.478951750578624367E-14, 3.299471521856073190E-33, 7.099999999999999645 ) ) ;
#198 = CC_DESIGN_SECURITY_CLASSIFICATION ( #175, ( #186 ) ) ;
#199 =( NAMED_UNIT ( * ) PLANE_ANGLE_UNIT ( ) SI_UNIT ( $, .RADIAN. ) );
#200 = FACE_OUTER_BOUND ( 'NONE', #193, .T. ) ;
#201 = DESIGN_CONTEXT ( 'detailed design', #15, 'design' ) ;
#202 = APPROVAL_ROLE ( '' ) ;
#203 = DIRECTION ( 'NONE',  ( -3.491481338843133355E-15, 1.224646799147353207E-16, -1.000000000000000000 ) ) ;
#204 = APPLICATION_CONTEXT ( 'configuration controlled 3d designs of mechanical parts and assemblies' ) ;
#205 = CARTESIAN_POINT ( 'NONE',  ( 2.478951750578624367E-14, 3.299471521856073190E-33, 7.099999999999999645 ) ) ;
#206 = AXIS2_PLACEMENT_3D ( 'NONE', #172, #203, #217 ) ;
#207 =( GEOMETRIC_REPRESENTATION_CONTEXT ( 3 ) GLOBAL_UNCERTAINTY_ASSIGNED_CONTEXT ( ( #40 ) ) GLOBAL_UNIT_ASSIGNED_CONTEXT ( ( #56, #199, #148 ) ) REPRESENTATION_CONTEXT ( 'NONE', 'WORKASPACE' ) );
#208 = CONICAL_SURFACE ( 'NONE', #165, 0.4399999999999992251, 1.047197551196592746 ) ;
#209 = CARTESIAN_POINT ( 'NONE',  ( 2.666421865827828057E-14, -9.352548921955654308E-16, 7.636935750346354190 ) ) ;
#210 = ORIENTED_EDGE ( 'NONE', *, *, #214, .F. ) ;
#211 = DIRECTION ( 'NONE',  ( -3.491481338843133355E-15, 1.224646799147353207E-16, -1.000000000000000000 ) ) ;
#212 = ORIENTED_EDGE ( 'NONE', *, *, #147, .T. ) ;
#213 = CC_DESIGN_APPROVAL ( #218, ( #175 ) ) ;
#214 = EDGE_CURVE ( 'NONE', #54, #54, #88, .T. ) ;
#215 = PERSON_AND_ORGANIZATION ( #144, #31 ) ;
#216 = CALENDAR_DATE ( 2021, 8, 10 ) ;
#217 = DIRECTION ( 'NONE',  ( 0.0000000000000000000, 1.000000000000000000, 0.0000000000000000000 ) ) ;
#218 = APPROVAL ( #141, 'UNSPECIFIED' ) ;
#219 = CARTESIAN_POINT ( 'NONE',  ( 0.0000000000000000000, 0.0000000000000000000, 0.0000000000000000000 ) ) ;
#220 = PERSON_AND_ORGANIZATION ( #144, #31 ) ;
#221 = FACE_OUTER_BOUND ( 'NONE', #190, .T. ) ;
#222 = DIRECTION ( 'NONE',  ( 0.0000000000000000000, 1.000000000000000000, 0.0000000000000000000 ) ) ;
#223 = CC_DESIGN_DATE_AND_TIME_ASSIGNMENT ( #6, #132, ( #47 ) ) ;
ENDSEC;
END-ISO-10303-21;
