ISO-10303-21;
HEADER;
FILE_DESCRIPTION (( 'STEP AP203' ),
    '1' );
FILE_NAME ('958001.step',
    '2021-10-08T05:54:15',
    ( '' ),
    ( '' ),
    'SwSTEP 2.0',
    'SolidWorks 2019',
    '' );
FILE_SCHEMA (( 'CONFIG_CONTROL_DESIGN' ));
ENDSEC;

DATA;
#1 = EDGE_LOOP ( 'NONE', ( #155 ) ) ;
#2 = COORDINATED_UNIVERSAL_TIME_OFFSET ( 1, 0, .AHEAD. ) ;
#3 = PERSON ( 'UNSPECIFIED', 'UNSPECIFIED', 'UNSPECIFIED', ('UNSPECIFIED'), ('UNSPECIFIED'), ('UNSPECIFIED') ) ;
#4 = CARTESIAN_POINT ( 'NONE',  ( 0.0000000000000000000, 0.0000000000000000000, 0.0000000000000000000 ) ) ;
#5 = CC_DESIGN_APPROVAL ( #58, ( #124 ) ) ;
#6 = EDGE_LOOP ( 'NONE', ( #28 ) ) ;
#7 = CARTESIAN_POINT ( 'NONE',  ( 2.478951750578624367E-14, -8.694992273946207746E-16, 7.099999999999999645 ) ) ;
#8 = PRODUCT_DEFINITION_FORMATION_WITH_SPECIFIED_SOURCE ( 'ANY', '', #192, .NOT_KNOWN. ) ;
#9 = CARTESIAN_POINT ( 'NONE',  ( 2.478951750578624367E-14, -8.694992273946207746E-16, 7.099999999999999645 ) ) ;
#10 = FACE_OUTER_BOUND ( 'NONE', #37, .T. ) ;
#11 = FACE_BOUND ( 'NONE', #99, .T. ) ;
#12 = ADVANCED_FACE ( 'NONE', ( #25, #81 ), #157, .T. ) ;
#13 = CARTESIAN_POINT ( 'NONE',  ( 2.666421865827828057E-14, -9.352548921955654308E-16, 7.636935750346354190 ) ) ;
#14 = AXIS2_PLACEMENT_3D ( 'NONE', #85, #56, #57 ) ;
#15 = DESIGN_CONTEXT ( 'detailed design', #45, 'design' ) ;
#16 =( NAMED_UNIT ( * ) SI_UNIT ( $, .STERADIAN. ) SOLID_ANGLE_UNIT ( ) );
#17 = CIRCLE ( 'NONE', #209, 0.4399999999999992251 ) ;
#18 = PERSON_AND_ORGANIZATION_ROLE ( 'classification_officer' ) ;
#19 = DATE_TIME_ROLE ( 'creation_date' ) ;
#20 = CC_DESIGN_PERSON_AND_ORGANIZATION_ASSIGNMENT ( #35, #34, ( #8 ) ) ;
#21 = EDGE_LOOP ( 'NONE', ( #122 ) ) ;
#22 = LOCAL_TIME ( 7, 54, 15.00000000000000000, #68 ) ;
#23 = EDGE_LOOP ( 'NONE', ( #70 ) ) ;
#24 = CC_DESIGN_PERSON_AND_ORGANIZATION_ASSIGNMENT ( #132, #61, ( #192 ) ) ;
#25 = FACE_OUTER_BOUND ( 'NONE', #1, .T. ) ;
#26 = ORIENTED_EDGE ( 'NONE', *, *, #147, .T. ) ;
#27 = LOCAL_TIME ( 7, 54, 15.00000000000000000, #146 ) ;
#28 = ORIENTED_EDGE ( 'NONE', *, *, #212, .F. ) ;
#29 = DIRECTION ( 'NONE',  ( 4.377113509970998059E-31, 1.000000000000000000, 1.232047923278984418E-16 ) ) ;
#30 = AXIS2_PLACEMENT_3D ( 'NONE', #216, #195, #88 ) ;
#31 = VERTEX_POINT ( 'NONE', #181 ) ;
#32 = DIRECTION ( 'NONE',  ( 0.0000000000000000000, 1.000000000000000000, 0.0000000000000000000 ) ) ;
#33 = CARTESIAN_POINT ( 'NONE',  ( 8.869553839747291790E-16, -3.111020700259756253E-17, 0.2540341184434377619 ) ) ;
#34 = PERSON_AND_ORGANIZATION_ROLE ( 'design_supplier' ) ;
#35 = PERSON_AND_ORGANIZATION ( #3, #197 ) ;
#36 = PERSON_AND_ORGANIZATION_ROLE ( 'creator' ) ;
#37 = EDGE_LOOP ( 'NONE', ( #139 ) ) ;
#38 = AXIS2_PLACEMENT_3D ( 'NONE', #145, #196, #213 ) ;
#39 = PRODUCT_DEFINITION_SHAPE ( 'NONE', 'NONE',  #204 ) ;
#40 = DIRECTION ( 'NONE',  ( 4.275831445896958607E-31, 1.000000000000000000, 1.224646799147353207E-16 ) ) ;
#41 = DIRECTION ( 'NONE',  ( -3.491481338843133355E-15, 1.224646799147353207E-16, -1.000000000000000000 ) ) ;
#42 = FACE_OUTER_BOUND ( 'NONE', #100, .T. ) ;
#43 = CARTESIAN_POINT ( 'NONE',  ( 8.869553839747291790E-16, -3.111020700259756253E-17, 0.2540341184434377619 ) ) ;
#44 = DIRECTION ( 'NONE',  ( -3.491481338843133355E-15, 1.224646799147353207E-16, -1.000000000000000000 ) ) ;
#45 = APPLICATION_CONTEXT ( 'configuration controlled 3d designs of mechanical parts and assemblies' ) ;
#46 = CONICAL_SURFACE ( 'NONE', #149, 0.6500000000000000222, 0.7853981633974510546 ) ;
#47 = COORDINATED_UNIVERSAL_TIME_OFFSET ( 1, 0, .AHEAD. ) ;
#48 = AXIS2_PLACEMENT_3D ( 'NONE', #4, #69, #40 ) ;
#49 = CC_DESIGN_DATE_AND_TIME_ASSIGNMENT ( #153, #19, ( #204 ) ) ;
#50 = CONICAL_SURFACE ( 'NONE', #190, 0.4399999999999992251, 1.047197551196592746 ) ;
#51 = CLOSED_SHELL ( 'NONE', ( #210, #91, #66, #128, #82 ) ) ;
#52 = AXIS2_PLACEMENT_3D ( 'NONE', #183, #72, #140 ) ;
#53 = FACE_BOUND ( 'NONE', #21, .T. ) ;
#54 = ADVANCED_FACE ( 'NONE', ( #110 ), #103, .T. ) ;
#55 = VERTEX_POINT ( 'NONE', #163 ) ;
#56 = DIRECTION ( 'NONE',  ( -3.491481338843133355E-15, 1.224646799147353207E-16, -1.000000000000000000 ) ) ;
#57 = DIRECTION ( 'NONE',  ( 0.0000000000000000000, 1.000000000000000000, 0.0000000000000000000 ) ) ;
#58 = APPROVAL ( #137, 'UNSPECIFIED' ) ;
#59 = CLOSED_SHELL ( 'NONE', ( #180, #12, #54 ) ) ;
#60 = CARTESIAN_POINT ( 'NONE',  ( 8.869553839747293762E-16, 0.4399999999999991696, 0.2540341184434378174 ) ) ;
#61 = PERSON_AND_ORGANIZATION_ROLE ( 'design_owner' ) ;
#62 =( NAMED_UNIT ( * ) PLANE_ANGLE_UNIT ( ) SI_UNIT ( $, .RADIAN. ) );
#63 = LOCAL_TIME ( 7, 54, 15.00000000000000000, #2 ) ;
#64 = APPROVAL_ROLE ( '' ) ;
#65 = CALENDAR_DATE ( 2021, 8, 10 ) ;
#66 = ADVANCED_FACE ( 'NONE', ( #215, #89 ), #179, .T. ) ;
#67 = EDGE_LOOP ( 'NONE', ( #123 ) ) ;
#68 = COORDINATED_UNIVERSAL_TIME_OFFSET ( 1, 0, .AHEAD. ) ;
#69 = DIRECTION ( 'NONE',  ( -3.491481338843133355E-15, 1.224646799147353207E-16, -1.000000000000000000 ) ) ;
#70 = ORIENTED_EDGE ( 'NONE', *, *, #212, .T. ) ;
#71 = MANIFOLD_SOLID_BREP ( 'Corps-Déplacer/Copier1[2]', #59 ) ;
#72 = DIRECTION ( 'NONE',  ( 3.491481338843133355E-15, -1.224646799147353207E-16, 1.000000000000000000 ) ) ;
#73 = DIRECTION ( 'NONE',  ( 3.491481338843133355E-15, -1.224646799147353207E-16, 1.000000000000000000 ) ) ;
#74 = FACE_OUTER_BOUND ( 'NONE', #83, .T. ) ;
#75 = EDGE_CURVE ( 'NONE', #31, #31, #106, .T. ) ;
#76 = APPROVAL_DATE_TIME ( #185, #161 ) ;
#77 = CARTESIAN_POINT ( 'NONE',  ( 2.478951750578624367E-14, 0.4399999999999990030, 7.099999999999999645 ) ) ;
#78 = APPROVAL_ROLE ( '' ) ;
#79 = LOCAL_TIME ( 7, 54, 15.00000000000000000, #47 ) ;
#80 = ORIENTED_EDGE ( 'NONE', *, *, #75, .T. ) ;
#81 = FACE_OUTER_BOUND ( 'NONE', #23, .T. ) ;
#82 = ADVANCED_FACE ( 'NONE', ( #74 ), #127, .F. ) ;
#83 = EDGE_LOOP ( 'NONE', ( #176 ) ) ;
#84 = PLANE ( 'NONE',  #52 ) ;
#85 = CARTESIAN_POINT ( 'NONE',  ( 1.047444401652940007E-13, -3.673940397442059178E-15, 30.00000000000000000 ) ) ;
#86 = CIRCLE ( 'NONE', #207, 0.7499999999999998890 ) ;
#87 = VERTEX_POINT ( 'NONE', #162 ) ;
#88 = DIRECTION ( 'NONE',  ( 0.0000000000000000000, -1.000000000000000000, 0.0000000000000000000 ) ) ;
#89 = FACE_OUTER_BOUND ( 'NONE', #191, .T. ) ;
#90 = VERTEX_POINT ( 'NONE', #186 ) ;
#91 = ADVANCED_FACE ( 'NONE', ( #53, #198 ), #222, .T. ) ;
#92 = VERTEX_POINT ( 'NONE', #77 ) ;
#93 = PERSON_AND_ORGANIZATION ( #3, #197 ) ;
#94 = APPROVAL_PERSON_ORGANIZATION ( #115, #161, #78 ) ;
#95 = APPLICATION_PROTOCOL_DEFINITION ( 'international standard', 'config_control_design', 1994, #45 ) ;
#96 = APPROVAL_DATE_TIME ( #177, #58 ) ;
#97 = CC_DESIGN_DATE_AND_TIME_ASSIGNMENT ( #156, #136, ( #124 ) ) ;
#98 = CC_DESIGN_SECURITY_CLASSIFICATION ( #124, ( #8 ) ) ;
#99 = EDGE_LOOP ( 'NONE', ( #158 ) ) ;
#100 = EDGE_LOOP ( 'NONE', ( #26 ) ) ;
#101 = AXIS2_PLACEMENT_3D ( 'NONE', #13, #44, #211 ) ;
#102 = ORIENTED_EDGE ( 'NONE', *, *, #189, .T. ) ;
#103 = PLANE ( 'NONE',  #168 ) ;
#104 = EDGE_CURVE ( 'NONE', #87, #87, #86, .T. ) ;
#105 = DIRECTION ( 'NONE',  ( 0.0000000000000000000, 1.000000000000000000, 0.0000000000000000000 ) ) ;
#106 = CIRCLE ( 'NONE', #101, 0.7499999999999973355 ) ;
#107 = APPLICATION_CONTEXT ( 'configuration controlled 3d designs of mechanical parts and assemblies' ) ;
#108 = CARTESIAN_POINT ( 'NONE',  ( 0.0000000000000000000, 0.0000000000000000000, 0.0000000000000000000 ) ) ;
#109 = ADVANCED_BREP_SHAPE_REPRESENTATION ( '958001', ( #151, #71, #202 ), #138 ) ;
#110 = FACE_OUTER_BOUND ( 'NONE', #6, .T. ) ;
#111 = CALENDAR_DATE ( 2021, 8, 10 ) ;
#112 = LOCAL_TIME ( 7, 54, 15.00000000000000000, #201 ) ;
#113 = DATE_AND_TIME ( #203, #79 ) ;
#114 = APPROVAL_DATE_TIME ( #113, #152 ) ;
#115 = PERSON_AND_ORGANIZATION ( #3, #197 ) ;
#116 = CARTESIAN_POINT ( 'NONE',  ( 0.0000000000000000000, 0.0000000000000000000, 0.0000000000000000000 ) ) ;
#117 = CC_DESIGN_APPROVAL ( #161, ( #204 ) ) ;
#118 = EDGE_CURVE ( 'NONE', #55, #55, #154, .T. ) ;
#119 = AXIS2_PLACEMENT_3D ( 'NONE', #108, #142, #178 ) ;
#120 = CC_DESIGN_PERSON_AND_ORGANIZATION_ASSIGNMENT ( #173, #208, ( #204 ) ) ;
#121 = CALENDAR_DATE ( 2021, 8, 10 ) ;
#122 = ORIENTED_EDGE ( 'NONE', *, *, #189, .F. ) ;
#123 = ORIENTED_EDGE ( 'NONE', *, *, #75, .F. ) ;
#124 = SECURITY_CLASSIFICATION ( '', '', #170 ) ;
#125 = DIRECTION ( 'NONE',  ( -3.491481338843133355E-15, 1.224646799147353207E-16, -1.000000000000000000 ) ) ;
#126 = CARTESIAN_POINT ( 'NONE',  ( 1.047444401652940007E-13, -3.673940397442059178E-15, 30.00000000000000000 ) ) ;
#127 = PLANE ( 'NONE',  #38 ) ;
#128 = ADVANCED_FACE ( 'NONE', ( #10, #11 ), #46, .T. ) ;
#129 = DIRECTION ( 'NONE',  ( 3.491481338843133355E-15, -1.224646799147353207E-16, 1.000000000000000000 ) ) ;
#130 = DIRECTION ( 'NONE',  ( 0.0000000000000000000, 1.000000000000000000, 0.0000000000000000000 ) ) ;
#131 = DIRECTION ( 'NONE',  ( 0.0000000000000000000, 0.0000000000000000000, 1.000000000000000000 ) ) ;
#132 = PERSON_AND_ORGANIZATION ( #3, #197 ) ;
#133 = CC_DESIGN_PERSON_AND_ORGANIZATION_ASSIGNMENT ( #134, #36, ( #8 ) ) ;
#134 = PERSON_AND_ORGANIZATION ( #3, #197 ) ;
#135 = APPROVAL_PERSON_ORGANIZATION ( #187, #58, #64 ) ;
#136 = DATE_TIME_ROLE ( 'classification_date' ) ;
#137 = APPROVAL_STATUS ( 'not_yet_approved' ) ;
#138 =( GEOMETRIC_REPRESENTATION_CONTEXT ( 3 ) GLOBAL_UNCERTAINTY_ASSIGNED_CONTEXT ( ( #164 ) ) GLOBAL_UNIT_ASSIGNED_CONTEXT ( ( #167, #62, #16 ) ) REPRESENTATION_CONTEXT ( 'NONE', 'WORKASPACE' ) );
#139 = ORIENTED_EDGE ( 'NONE', *, *, #104, .F. ) ;
#140 = DIRECTION ( 'NONE',  ( -4.275831445896958607E-31, -1.000000000000000000, -1.224646799147353207E-16 ) ) ;
#141 = AXIS2_PLACEMENT_3D ( 'NONE', #9, #41, #105 ) ;
#142 = DIRECTION ( 'NONE',  ( -3.491481338843133355E-15, 1.224646799147353207E-16, -1.000000000000000000 ) ) ;
#143 = DIRECTION ( 'NONE',  ( 0.0000000000000000000, 1.000000000000000000, 0.0000000000000000000 ) ) ;
#144 = FACE_OUTER_BOUND ( 'NONE', #223, .T. ) ;
#145 = CARTESIAN_POINT ( 'NONE',  ( 1.047444401652940007E-13, 4.874219293650981803E-33, 30.00000000000000000 ) ) ;
#146 = COORDINATED_UNIVERSAL_TIME_OFFSET ( 1, 0, .AHEAD. ) ;
#147 = EDGE_CURVE ( 'NONE', #148, #148, #17, .T. ) ;
#148 = VERTEX_POINT ( 'NONE', #60 ) ;
#149 = AXIS2_PLACEMENT_3D ( 'NONE', #126, #125, #130 ) ;
#150 = APPROVAL_STATUS ( 'not_yet_approved' ) ;
#151 = MANIFOLD_SOLID_BREP ( 'Corps-Déplacer/Copier1[1]', #51 ) ;
#152 = APPROVAL ( #217, 'UNSPECIFIED' ) ;
#153 = DATE_AND_TIME ( #111, #27 ) ;
#154 = CIRCLE ( 'NONE', #14, 0.6500000000000000222 ) ;
#155 = ORIENTED_EDGE ( 'NONE', *, *, #147, .F. ) ;
#156 = DATE_AND_TIME ( #65, #22 ) ;
#157 = CYLINDRICAL_SURFACE ( 'NONE', #48, 0.4399999999999995026 ) ;
#158 = ORIENTED_EDGE ( 'NONE', *, *, #118, .T. ) ;
#159 = DIRECTION ( 'NONE',  ( -3.491481338843133355E-15, 1.224646799147353207E-16, -1.000000000000000000 ) ) ;
#160 = DIRECTION ( 'NONE',  ( -3.491481338843133355E-15, 1.224646799147353207E-16, -1.000000000000000000 ) ) ;
#161 = APPROVAL ( #150, 'UNSPECIFIED' ) ;
#162 = CARTESIAN_POINT ( 'NONE',  ( 1.043952920314096810E-13, 0.7499999999999962252, 29.89999999999999858 ) ) ;
#163 = CARTESIAN_POINT ( 'NONE',  ( 1.047444401652940007E-13, 0.6499999999999962474, 30.00000000000000000 ) ) ;
#164 = UNCERTAINTY_MEASURE_WITH_UNIT (LENGTH_MEASURE( 1.000000000000000082E-05 ), #167, 'distance_accuracy_value', 'NONE');
#165 = DIRECTION ( 'NONE',  ( -4.275831445896958607E-31, -1.000000000000000000, -1.224646799147353207E-16 ) ) ;
#166 = APPROVAL_PERSON_ORGANIZATION ( #206, #152, #221 ) ;
#167 =( LENGTH_UNIT ( ) NAMED_UNIT ( * ) SI_UNIT ( .MILLI., .METRE. ) );
#168 = AXIS2_PLACEMENT_3D ( 'NONE', #194, #129, #165 ) ;
#169 = PRODUCT_RELATED_PRODUCT_CATEGORY ( 'detail', '', ( #192 ) ) ;
#170 = SECURITY_CLASSIFICATION_LEVEL ( 'unclassified' ) ;
#171 = CIRCLE ( 'NONE', #141, 0.4399999999999998357 ) ;
#172 = APPLICATION_PROTOCOL_DEFINITION ( 'international standard', 'config_control_design', 1994, #107 ) ;
#173 = PERSON_AND_ORGANIZATION ( #3, #197 ) ;
#174 = SHAPE_DEFINITION_REPRESENTATION ( #39, #109 ) ;
#175 = CIRCLE ( 'NONE', #184, 0.4399999999999998357 ) ;
#176 = ORIENTED_EDGE ( 'NONE', *, *, #118, .F. ) ;
#177 = DATE_AND_TIME ( #121, #63 ) ;
#178 = DIRECTION ( 'NONE',  ( 4.275831445896959482E-31, 1.000000000000000000, 1.224646799147353454E-16 ) ) ;
#179 = CYLINDRICAL_SURFACE ( 'NONE', #119, 0.7499999999999985567 ) ;
#180 = ADVANCED_FACE ( 'NONE', ( #42 ), #50, .T. ) ;
#181 = CARTESIAN_POINT ( 'NONE',  ( 2.666421865827828057E-14, 0.7499999999999963363, 7.636935750346354190 ) ) ;
#182 = DIRECTION ( 'NONE',  ( -4.377113509970998059E-31, -1.000000000000000000, -1.232047923278984418E-16 ) ) ;
#183 = CARTESIAN_POINT ( 'NONE',  ( 2.478951750578624367E-14, 3.299471521856073190E-33, 7.099999999999999645 ) ) ;
#184 = AXIS2_PLACEMENT_3D ( 'NONE', #7, #160, #32 ) ;
#185 = DATE_AND_TIME ( #220, #112 ) ;
#186 = CARTESIAN_POINT ( 'NONE',  ( 2.478951750578624367E-14, 0.4399999999999990030, 7.099999999999999645 ) ) ;
#187 = PERSON_AND_ORGANIZATION ( #3, #197 ) ;
#188 = ORIENTED_EDGE ( 'NONE', *, *, #104, .T. ) ;
#189 = EDGE_CURVE ( 'NONE', #92, #92, #175, .T. ) ;
#190 = AXIS2_PLACEMENT_3D ( 'NONE', #33, #73, #182 ) ;
#191 = EDGE_LOOP ( 'NONE', ( #188 ) ) ;
#192 = PRODUCT ( '958001', '958001', '', ( #205 ) ) ;
#193 = EDGE_LOOP ( 'NONE', ( #80 ) ) ;
#194 = CARTESIAN_POINT ( 'NONE',  ( 2.478951750578624367E-14, 3.299471521856073190E-33, 7.099999999999999645 ) ) ;
#195 = DIRECTION ( 'NONE',  ( 3.491481338843133355E-15, -1.224646799147353207E-16, 1.000000000000000000 ) ) ;
#196 = DIRECTION ( 'NONE',  ( -3.491481338843133355E-15, 1.224646799147353207E-16, -1.000000000000000000 ) ) ;
#197 = ORGANIZATION ( 'UNSPECIFIED', 'UNSPECIFIED', '' ) ;
#198 = FACE_OUTER_BOUND ( 'NONE', #193, .T. ) ;
#199 = CC_DESIGN_PERSON_AND_ORGANIZATION_ASSIGNMENT ( #93, #18, ( #124 ) ) ;
#200 = DIRECTION ( 'NONE',  ( -3.491481338843133355E-15, 1.224646799147353207E-16, -1.000000000000000000 ) ) ;
#201 = COORDINATED_UNIVERSAL_TIME_OFFSET ( 1, 0, .AHEAD. ) ;
#202 = AXIS2_PLACEMENT_3D ( 'NONE', #116, #131, #218 ) ;
#203 = CALENDAR_DATE ( 2021, 8, 10 ) ;
#204 = PRODUCT_DEFINITION ( 'UNKNOWN', '', #8, #15 ) ;
#205 = MECHANICAL_CONTEXT ( 'NONE', #107, 'mechanical' ) ;
#206 = PERSON_AND_ORGANIZATION ( #3, #197 ) ;
#207 = AXIS2_PLACEMENT_3D ( 'NONE', #214, #159, #143 ) ;
#208 = PERSON_AND_ORGANIZATION_ROLE ( 'creator' ) ;
#209 = AXIS2_PLACEMENT_3D ( 'NONE', #43, #200, #29 ) ;
#210 = ADVANCED_FACE ( 'NONE', ( #144 ), #84, .F. ) ;
#211 = DIRECTION ( 'NONE',  ( 0.0000000000000000000, 1.000000000000000000, 0.0000000000000000000 ) ) ;
#212 = EDGE_CURVE ( 'NONE', #90, #90, #171, .T. ) ;
#213 = DIRECTION ( 'NONE',  ( 4.275831445896958607E-31, 1.000000000000000000, 1.224646799147353207E-16 ) ) ;
#214 = CARTESIAN_POINT ( 'NONE',  ( 1.043952920314096810E-13, -3.661693929450586610E-15, 29.89999999999999858 ) ) ;
#215 = FACE_OUTER_BOUND ( 'NONE', #67, .T. ) ;
#216 = CARTESIAN_POINT ( 'NONE',  ( 2.666421865827828057E-14, -9.352548921955654308E-16, 7.636935750346354190 ) ) ;
#217 = APPROVAL_STATUS ( 'not_yet_approved' ) ;
#218 = DIRECTION ( 'NONE',  ( 1.000000000000000000, 0.0000000000000000000, 0.0000000000000000000 ) ) ;
#219 = CC_DESIGN_APPROVAL ( #152, ( #8 ) ) ;
#220 = CALENDAR_DATE ( 2021, 8, 10 ) ;
#221 = APPROVAL_ROLE ( '' ) ;
#222 = CONICAL_SURFACE ( 'NONE', #30, 0.7499999999999973355, 0.5235987755982928205 ) ;
#223 = EDGE_LOOP ( 'NONE', ( #102 ) ) ;
ENDSEC;
END-ISO-10303-21;
