ISO-10303-21;
HEADER;
FILE_DESCRIPTION (( 'STEP AP203' ),
    '1' );
FILE_NAME ('957999.step',
    '2021-10-08T08:13:05',
    ( '' ),
    ( '' ),
    'SwSTEP 2.0',
    'SolidWorks 2019',
    '' );
FILE_SCHEMA (( 'CONFIG_CONTROL_DESIGN' ));
ENDSEC;

DATA;
#1 = PRODUCT_DEFINITION_FORMATION_WITH_SPECIFIED_SOURCE ( 'ANY', '', #144, .NOT_KNOWN. ) ;
#2 = PERSON_AND_ORGANIZATION ( #97, #30 ) ;
#3 = DIRECTION ( 'NONE',  ( -3.491481338843133355E-15, 1.224646799147353207E-16, -1.000000000000000000 ) ) ;
#4 = DIRECTION ( 'NONE',  ( 3.491481338843133355E-15, -1.224646799147353207E-16, 1.000000000000000000 ) ) ;
#5 = VERTEX_POINT ( 'NONE', #20 ) ;
#6 = DIRECTION ( 'NONE',  ( 4.275831445896959482E-31, 1.000000000000000000, 1.224646799147353207E-16 ) ) ;
#7 = CARTESIAN_POINT ( 'NONE',  ( 2.669445577364105246E-14, -9.363154674342902778E-16, 7.645596004384199063 ) ) ;
#8 = PERSON_AND_ORGANIZATION ( #97, #30 ) ;
#9 = EDGE_CURVE ( 'NONE', #5, #5, #172, .T. ) ;
#10 = MECHANICAL_CONTEXT ( 'NONE', #204, 'mechanical' ) ;
#11 = APPROVAL_PERSON_ORGANIZATION ( #39, #213, #51 ) ;
#12 = PERSON_AND_ORGANIZATION ( #97, #30 ) ;
#13 = ORIENTED_EDGE ( 'NONE', *, *, #199, .F. ) ;
#14 = CC_DESIGN_PERSON_AND_ORGANIZATION_ASSIGNMENT ( #215, #60, ( #175 ) ) ;
#15 = DIRECTION ( 'NONE',  ( 0.0000000000000000000, 1.000000000000000000, 0.0000000000000000000 ) ) ;
#16 = EDGE_LOOP ( 'NONE', ( #130 ) ) ;
#17 = CLOSED_SHELL ( 'NONE', ( #165, #19, #170 ) ) ;
#18 = DATE_AND_TIME ( #69, #44 ) ;
#19 = ADVANCED_FACE ( 'NONE', ( #151, #153 ), #222, .T. ) ;
#20 = CARTESIAN_POINT ( 'NONE',  ( 1.047444401652940007E-13, 0.6499999999999962474, 30.00000000000000000 ) ) ;
#21 = FACE_OUTER_BOUND ( 'NONE', #150, .T. ) ;
#22 = VERTEX_POINT ( 'NONE', #72 ) ;
#23 = CC_DESIGN_APPROVAL ( #195, ( #1 ) ) ;
#24 = DIRECTION ( 'NONE',  ( -4.275831445896958607E-31, -1.000000000000000000, -1.224646799147353207E-16 ) ) ;
#25 = COORDINATED_UNIVERSAL_TIME_OFFSET ( 1, 0, .AHEAD. ) ;
#26 = AXIS2_PLACEMENT_3D ( 'NONE', #138, #174, #105 ) ;
#27 = CONICAL_SURFACE ( 'NONE', #173, 0.6500000000000000222, 0.7853981633974516097 ) ;
#28 = DATE_TIME_ROLE ( 'creation_date' ) ;
#29 = APPLICATION_CONTEXT ( 'configuration controlled 3d designs of mechanical parts and assemblies' ) ;
#30 = ORGANIZATION ( 'UNSPECIFIED', 'UNSPECIFIED', '' ) ;
#31 = ORIENTED_EDGE ( 'NONE', *, *, #152, .F. ) ;
#32 = COORDINATED_UNIVERSAL_TIME_OFFSET ( 1, 0, .AHEAD. ) ;
#33 = ORIENTED_EDGE ( 'NONE', *, *, #199, .T. ) ;
#34 = EDGE_CURVE ( 'NONE', #188, #188, #37, .T. ) ;
#35 = DATE_AND_TIME ( #63, #178 ) ;
#36 = DIRECTION ( 'NONE',  ( 0.0000000000000000000, 1.000000000000000000, 0.0000000000000000000 ) ) ;
#37 = CIRCLE ( 'NONE', #26, 0.4349999999999991651 ) ;
#38 = AXIS2_PLACEMENT_3D ( 'NONE', #7, #43, #56 ) ;
#39 = PERSON_AND_ORGANIZATION ( #97, #30 ) ;
#40 = CARTESIAN_POINT ( 'NONE',  ( 8.768763455204712256E-16, 0.4349999999999991096, 0.2511473670974896932 ) ) ;
#41 = CC_DESIGN_PERSON_AND_ORGANIZATION_ASSIGNMENT ( #2, #137, ( #1 ) ) ;
#42 = CYLINDRICAL_SURFACE ( 'NONE', #139, 0.7499999999999986677 ) ;
#43 = DIRECTION ( 'NONE',  ( -3.491481338843133355E-15, 1.224646799147353207E-16, -1.000000000000000000 ) ) ;
#44 = LOCAL_TIME ( 10, 13, 5.000000000000000000, #32 ) ;
#45 = DIRECTION ( 'NONE',  ( 0.0000000000000000000, 1.000000000000000000, 0.0000000000000000000 ) ) ;
#46 = COORDINATED_UNIVERSAL_TIME_OFFSET ( 1, 0, .AHEAD. ) ;
#47 = APPROVAL_DATE_TIME ( #197, #195 ) ;
#48 = VERTEX_POINT ( 'NONE', #114 ) ;
#49 = AXIS2_PLACEMENT_3D ( 'NONE', #57, #193, #45 ) ;
#50 = EDGE_LOOP ( 'NONE', ( #13 ) ) ;
#51 = APPROVAL_ROLE ( '' ) ;
#52 = FACE_OUTER_BOUND ( 'NONE', #50, .T. ) ;
#53 = DIRECTION ( 'NONE',  ( 3.491481338843133355E-15, -1.224646799147353207E-16, 1.000000000000000000 ) ) ;
#54 = CIRCLE ( 'NONE', #203, 0.4350000000000000533 ) ;
#55 = VERTEX_POINT ( 'NONE', #177 ) ;
#56 = DIRECTION ( 'NONE',  ( 0.0000000000000000000, 1.000000000000000000, 0.0000000000000000000 ) ) ;
#57 = CARTESIAN_POINT ( 'NONE',  ( 1.043952920314096810E-13, -3.661693929450586610E-15, 29.89999999999999858 ) ) ;
#58 = CC_DESIGN_APPROVAL ( #119, ( #175 ) ) ;
#59 = CC_DESIGN_PERSON_AND_ORGANIZATION_ASSIGNMENT ( #209, #66, ( #146 ) ) ;
#60 = PERSON_AND_ORGANIZATION_ROLE ( 'creator' ) ;
#61 = COORDINATED_UNIVERSAL_TIME_OFFSET ( 1, 0, .AHEAD. ) ;
#62 = AXIS2_PLACEMENT_3D ( 'NONE', #205, #4, #158 ) ;
#63 = CALENDAR_DATE ( 2021, 8, 10 ) ;
#64 = SECURITY_CLASSIFICATION_LEVEL ( 'unclassified' ) ;
#65 = CC_DESIGN_SECURITY_CLASSIFICATION ( #146, ( #1 ) ) ;
#66 = PERSON_AND_ORGANIZATION_ROLE ( 'classification_officer' ) ;
#67 = PLANE ( 'NONE',  #71 ) ;
#68 = DIRECTION ( 'NONE',  ( -3.491481338843133355E-15, 1.224646799147353207E-16, -1.000000000000000000 ) ) ;
#69 = CALENDAR_DATE ( 2021, 8, 10 ) ;
#70 = PLANE ( 'NONE',  #131 ) ;
#71 = AXIS2_PLACEMENT_3D ( 'NONE', #180, #154, #88 ) ;
#72 = CARTESIAN_POINT ( 'NONE',  ( 1.043952920314096810E-13, 0.7499999999999963363, 29.89999999999999858 ) ) ;
#73 = DIRECTION ( 'NONE',  ( 3.491481338843133355E-15, -1.224646799147353207E-16, 1.000000000000000000 ) ) ;
#74 = MANIFOLD_SOLID_BREP ( 'Corps-Déplacer/Copier1[1]', #110 ) ;
#75 =( NAMED_UNIT ( * ) SI_UNIT ( $, .STERADIAN. ) SOLID_ANGLE_UNIT ( ) );
#76 = CIRCLE ( 'NONE', #38, 0.7499999999999973355 ) ;
#77 = PRODUCT_RELATED_PRODUCT_CATEGORY ( 'detail', '', ( #144 ) ) ;
#78 = CARTESIAN_POINT ( 'NONE',  ( 0.0000000000000000000, 0.0000000000000000000, 0.0000000000000000000 ) ) ;
#79 = APPROVAL_ROLE ( '' ) ;
#80 =( LENGTH_UNIT ( ) NAMED_UNIT ( * ) SI_UNIT ( .MILLI., .METRE. ) );
#81 = CC_DESIGN_DATE_AND_TIME_ASSIGNMENT ( #109, #28, ( #175 ) ) ;
#82 =( GEOMETRIC_REPRESENTATION_CONTEXT ( 3 ) GLOBAL_UNCERTAINTY_ASSIGNED_CONTEXT ( ( #187 ) ) GLOBAL_UNIT_ASSIGNED_CONTEXT ( ( #80, #183, #75 ) ) REPRESENTATION_CONTEXT ( 'NONE', 'WORKASPACE' ) );
#83 = DATE_TIME_ROLE ( 'classification_date' ) ;
#84 = DESIGN_CONTEXT ( 'detailed design', #29, 'design' ) ;
#85 = EDGE_LOOP ( 'NONE', ( #98 ) ) ;
#86 = DIRECTION ( 'NONE',  ( -3.491481338843133355E-15, 1.224646799147353207E-16, -1.000000000000000000 ) ) ;
#87 = DIRECTION ( 'NONE',  ( -4.275831445896958607E-31, -1.000000000000000000, -1.224646799147353207E-16 ) ) ;
#88 = DIRECTION ( 'NONE',  ( 4.275831445896958607E-31, 1.000000000000000000, 1.224646799147353207E-16 ) ) ;
#89 = ADVANCED_FACE ( 'NONE', ( #156, #106 ), #164, .T. ) ;
#90 = CARTESIAN_POINT ( 'NONE',  ( 0.0000000000000000000, 0.0000000000000000000, 0.0000000000000000000 ) ) ;
#91 = APPROVAL_PERSON_ORGANIZATION ( #12, #195, #79 ) ;
#92 = DIRECTION ( 'NONE',  ( -3.491481338843133355E-15, 1.224646799147353207E-16, -1.000000000000000000 ) ) ;
#93 = APPLICATION_PROTOCOL_DEFINITION ( 'international standard', 'config_control_design', 1994, #204 ) ;
#94 = AXIS2_PLACEMENT_3D ( 'NONE', #192, #73, #122 ) ;
#95 = PRODUCT_DEFINITION_SHAPE ( 'NONE', 'NONE',  #175 ) ;
#96 = PERSON_AND_ORGANIZATION ( #97, #30 ) ;
#97 = PERSON ( 'UNSPECIFIED', 'UNSPECIFIED', 'UNSPECIFIED', ('UNSPECIFIED'), ('UNSPECIFIED'), ('UNSPECIFIED') ) ;
#98 = ORIENTED_EDGE ( 'NONE', *, *, #141, .F. ) ;
#99 = CC_DESIGN_PERSON_AND_ORGANIZATION_ASSIGNMENT ( #96, #112, ( #1 ) ) ;
#100 = ORIENTED_EDGE ( 'NONE', *, *, #152, .T. ) ;
#101 = AXIS2_PLACEMENT_3D ( 'NONE', #107, #92, #212 ) ;
#102 = AXIS2_PLACEMENT_3D ( 'NONE', #125, #86, #136 ) ;
#103 = DIRECTION ( 'NONE',  ( 3.491481338843133355E-15, -1.224646799147353207E-16, 1.000000000000000000 ) ) ;
#104 = CARTESIAN_POINT ( 'NONE',  ( 2.669445577364105246E-14, 0.7499999999999963363, 7.645596004384199063 ) ) ;
#105 = DIRECTION ( 'NONE',  ( 4.427425159510895857E-31, 1.000000000000000000, 1.246209393661501837E-16 ) ) ;
#106 = FACE_OUTER_BOUND ( 'NONE', #169, .T. ) ;
#107 = CARTESIAN_POINT ( 'NONE',  ( 0.0000000000000000000, 0.0000000000000000000, 0.0000000000000000000 ) ) ;
#108 = CC_DESIGN_DATE_AND_TIME_ASSIGNMENT ( #35, #83, ( #146 ) ) ;
#109 = DATE_AND_TIME ( #167, #185 ) ;
#110 = CLOSED_SHELL ( 'NONE', ( #126, #89, #128, #161, #207 ) ) ;
#111 = EDGE_LOOP ( 'NONE', ( #168 ) ) ;
#112 = PERSON_AND_ORGANIZATION_ROLE ( 'creator' ) ;
#113 = DIRECTION ( 'NONE',  ( -3.491481338843133355E-15, 1.224646799147353207E-16, -1.000000000000000000 ) ) ;
#114 = CARTESIAN_POINT ( 'NONE',  ( 2.478951750578624367E-14, 0.4349999999999991651, 7.099999999999999645 ) ) ;
#115 = APPROVAL_STATUS ( 'not_yet_approved' ) ;
#116 = LOCAL_TIME ( 10, 13, 5.000000000000000000, #25 ) ;
#117 = ORIENTED_EDGE ( 'NONE', *, *, #217, .T. ) ;
#118 = DIRECTION ( 'NONE',  ( 0.0000000000000000000, 1.000000000000000000, 0.0000000000000000000 ) ) ;
#119 = APPROVAL ( #200, 'UNSPECIFIED' ) ;
#120 = AXIS2_PLACEMENT_3D ( 'NONE', #191, #103, #24 ) ;
#121 = FACE_OUTER_BOUND ( 'NONE', #218, .T. ) ;
#122 = DIRECTION ( 'NONE',  ( 0.0000000000000000000, -1.000000000000000000, 0.0000000000000000000 ) ) ;
#123 = CC_DESIGN_PERSON_AND_ORGANIZATION_ASSIGNMENT ( #182, #181, ( #144 ) ) ;
#124 = FACE_OUTER_BOUND ( 'NONE', #85, .T. ) ;
#125 = CARTESIAN_POINT ( 'NONE',  ( 2.478951750578624367E-14, -8.694992273946207746E-16, 7.099999999999999645 ) ) ;
#126 = ADVANCED_FACE ( 'NONE', ( #142 ), #159, .F. ) ;
#127 = CIRCLE ( 'NONE', #102, 0.4350000000000000533 ) ;
#128 = ADVANCED_FACE ( 'NONE', ( #124, #211 ), #42, .T. ) ;
#129 = CALENDAR_DATE ( 2021, 8, 10 ) ;
#130 = ORIENTED_EDGE ( 'NONE', *, *, #9, .T. ) ;
#131 = AXIS2_PLACEMENT_3D ( 'NONE', #190, #53, #87 ) ;
#132 = ORIENTED_EDGE ( 'NONE', *, *, #141, .T. ) ;
#133 = EDGE_LOOP ( 'NONE', ( #31 ) ) ;
#134 = EDGE_LOOP ( 'NONE', ( #117 ) ) ;
#135 = APPROVAL_DATE_TIME ( #18, #213 ) ;
#136 = DIRECTION ( 'NONE',  ( 0.0000000000000000000, 1.000000000000000000, 0.0000000000000000000 ) ) ;
#137 = PERSON_AND_ORGANIZATION_ROLE ( 'design_supplier' ) ;
#138 = CARTESIAN_POINT ( 'NONE',  ( 8.768763455204710284E-16, -3.075668192302259709E-17, 0.2511473670974896377 ) ) ;
#139 = AXIS2_PLACEMENT_3D ( 'NONE', #90, #68, #6 ) ;
#140 = CARTESIAN_POINT ( 'NONE',  ( 2.478951750578624367E-14, -8.694992273946207746E-16, 7.099999999999999645 ) ) ;
#141 = EDGE_CURVE ( 'NONE', #155, #155, #76, .T. ) ;
#142 = FACE_OUTER_BOUND ( 'NONE', #220, .T. ) ;
#143 = AXIS2_PLACEMENT_3D ( 'NONE', #202, #113, #15 ) ;
#144 = PRODUCT ( '957999', '957999', '', ( #10 ) ) ;
#145 = MANIFOLD_SOLID_BREP ( 'Corps-Déplacer/Copier1[2]', #17 ) ;
#146 = SECURITY_CLASSIFICATION ( '', '', #64 ) ;
#147 = DATE_AND_TIME ( #194, #116 ) ;
#148 = EDGE_LOOP ( 'NONE', ( #33 ) ) ;
#149 = DIRECTION ( 'NONE',  ( 0.0000000000000000000, 0.0000000000000000000, 1.000000000000000000 ) ) ;
#150 = EDGE_LOOP ( 'NONE', ( #198 ) ) ;
#151 = FACE_OUTER_BOUND ( 'NONE', #184, .T. ) ;
#152 = EDGE_CURVE ( 'NONE', #55, #55, #127, .T. ) ;
#153 = FACE_OUTER_BOUND ( 'NONE', #134, .T. ) ;
#154 = DIRECTION ( 'NONE',  ( -3.491481338843133355E-15, 1.224646799147353207E-16, -1.000000000000000000 ) ) ;
#155 = VERTEX_POINT ( 'NONE', #104 ) ;
#156 = FACE_BOUND ( 'NONE', #133, .T. ) ;
#157 = APPROVAL_PERSON_ORGANIZATION ( #8, #119, #219 ) ;
#158 = DIRECTION ( 'NONE',  ( -4.427425159510895857E-31, -1.000000000000000000, -1.246209393661501837E-16 ) ) ;
#159 = PLANE ( 'NONE',  #120 ) ;
#160 = APPLICATION_PROTOCOL_DEFINITION ( 'international standard', 'config_control_design', 1994, #29 ) ;
#161 = ADVANCED_FACE ( 'NONE', ( #52, #210 ), #27, .T. ) ;
#162 = CONICAL_SURFACE ( 'NONE', #62, 0.4349999999999991651, 1.047197551196592746 ) ;
#163 = APPROVAL_DATE_TIME ( #147, #119 ) ;
#164 = CONICAL_SURFACE ( 'NONE', #94, 0.7499999999999973355, 0.5235987755982927094 ) ;
#165 = ADVANCED_FACE ( 'NONE', ( #21 ), #162, .T. ) ;
#166 = CC_DESIGN_APPROVAL ( #213, ( #146 ) ) ;
#167 = CALENDAR_DATE ( 2021, 8, 10 ) ;
#168 = ORIENTED_EDGE ( 'NONE', *, *, #217, .F. ) ;
#169 = EDGE_LOOP ( 'NONE', ( #132 ) ) ;
#170 = ADVANCED_FACE ( 'NONE', ( #206 ), #70, .T. ) ;
#171 = ORIENTED_EDGE ( 'NONE', *, *, #9, .F. ) ;
#172 = CIRCLE ( 'NONE', #143, 0.6500000000000000222 ) ;
#173 = AXIS2_PLACEMENT_3D ( 'NONE', #179, #176, #36 ) ;
#174 = DIRECTION ( 'NONE',  ( -3.491481338843133355E-15, 1.224646799147353207E-16, -1.000000000000000000 ) ) ;
#175 = PRODUCT_DEFINITION ( 'UNKNOWN', '', #1, #84 ) ;
#176 = DIRECTION ( 'NONE',  ( -3.491481338843133355E-15, 1.224646799147353207E-16, -1.000000000000000000 ) ) ;
#177 = CARTESIAN_POINT ( 'NONE',  ( 2.478951750578624367E-14, 0.4349999999999991651, 7.099999999999999645 ) ) ;
#178 = LOCAL_TIME ( 10, 13, 5.000000000000000000, #221 ) ;
#179 = CARTESIAN_POINT ( 'NONE',  ( 1.047444401652940007E-13, -3.673940397442059178E-15, 30.00000000000000000 ) ) ;
#180 = CARTESIAN_POINT ( 'NONE',  ( 1.047444401652940007E-13, 4.874219293650981803E-33, 30.00000000000000000 ) ) ;
#181 = PERSON_AND_ORGANIZATION_ROLE ( 'design_owner' ) ;
#182 = PERSON_AND_ORGANIZATION ( #97, #30 ) ;
#183 =( NAMED_UNIT ( * ) PLANE_ANGLE_UNIT ( ) SI_UNIT ( $, .RADIAN. ) );
#184 = EDGE_LOOP ( 'NONE', ( #201 ) ) ;
#185 = LOCAL_TIME ( 10, 13, 5.000000000000000000, #46 ) ;
#186 = SHAPE_DEFINITION_REPRESENTATION ( #95, #223 ) ;
#187 = UNCERTAINTY_MEASURE_WITH_UNIT (LENGTH_MEASURE( 1.000000000000000082E-05 ), #80, 'distance_accuracy_value', 'NONE');
#188 = VERTEX_POINT ( 'NONE', #40 ) ;
#189 = CIRCLE ( 'NONE', #49, 0.7500000000000000000 ) ;
#190 = CARTESIAN_POINT ( 'NONE',  ( 2.478951750578624367E-14, 3.261977527289527844E-33, 7.099999999999999645 ) ) ;
#191 = CARTESIAN_POINT ( 'NONE',  ( 2.478951750578624367E-14, 3.261977527289527844E-33, 7.099999999999999645 ) ) ;
#192 = CARTESIAN_POINT ( 'NONE',  ( 2.669445577364105246E-14, -9.363154674342902778E-16, 7.645596004384199063 ) ) ;
#193 = DIRECTION ( 'NONE',  ( -3.491481338843133355E-15, 1.224646799147353207E-16, -1.000000000000000000 ) ) ;
#194 = CALENDAR_DATE ( 2021, 8, 10 ) ;
#195 = APPROVAL ( #216, 'UNSPECIFIED' ) ;
#196 = DIRECTION ( 'NONE',  ( 1.000000000000000000, 0.0000000000000000000, 0.0000000000000000000 ) ) ;
#197 = DATE_AND_TIME ( #129, #214 ) ;
#198 = ORIENTED_EDGE ( 'NONE', *, *, #34, .T. ) ;
#199 = EDGE_CURVE ( 'NONE', #22, #22, #189, .T. ) ;
#200 = APPROVAL_STATUS ( 'not_yet_approved' ) ;
#201 = ORIENTED_EDGE ( 'NONE', *, *, #34, .F. ) ;
#202 = CARTESIAN_POINT ( 'NONE',  ( 1.047444401652940007E-13, -3.673940397442059178E-15, 30.00000000000000000 ) ) ;
#203 = AXIS2_PLACEMENT_3D ( 'NONE', #140, #3, #118 ) ;
#204 = APPLICATION_CONTEXT ( 'configuration controlled 3d designs of mechanical parts and assemblies' ) ;
#205 = CARTESIAN_POINT ( 'NONE',  ( 8.768763455204710284E-16, -3.075668192302259709E-17, 0.2511473670974896377 ) ) ;
#206 = FACE_OUTER_BOUND ( 'NONE', #111, .T. ) ;
#207 = ADVANCED_FACE ( 'NONE', ( #121 ), #67, .F. ) ;
#208 = AXIS2_PLACEMENT_3D ( 'NONE', #78, #149, #196 ) ;
#209 = PERSON_AND_ORGANIZATION ( #97, #30 ) ;
#210 = FACE_BOUND ( 'NONE', #16, .T. ) ;
#211 = FACE_OUTER_BOUND ( 'NONE', #148, .T. ) ;
#212 = DIRECTION ( 'NONE',  ( 4.275831445896958607E-31, 1.000000000000000000, 1.224646799147353207E-16 ) ) ;
#213 = APPROVAL ( #115, 'UNSPECIFIED' ) ;
#214 = LOCAL_TIME ( 10, 13, 5.000000000000000000, #61 ) ;
#215 = PERSON_AND_ORGANIZATION ( #97, #30 ) ;
#216 = APPROVAL_STATUS ( 'not_yet_approved' ) ;
#217 = EDGE_CURVE ( 'NONE', #48, #48, #54, .T. ) ;
#218 = EDGE_LOOP ( 'NONE', ( #171 ) ) ;
#219 = APPROVAL_ROLE ( '' ) ;
#220 = EDGE_LOOP ( 'NONE', ( #100 ) ) ;
#221 = COORDINATED_UNIVERSAL_TIME_OFFSET ( 1, 0, .AHEAD. ) ;
#222 = CYLINDRICAL_SURFACE ( 'NONE', #101, 0.4349999999999996092 ) ;
#223 = ADVANCED_BREP_SHAPE_REPRESENTATION ( '957999', ( #74, #145, #208 ), #82 ) ;
ENDSEC;
END-ISO-10303-21;
