ISO-10303-21;
HEADER;
FILE_DESCRIPTION (( 'STEP AP203' ),
    '1' );
FILE_NAME ('957998.step',
    '2021-10-08T05:54:14',
    ( '' ),
    ( '' ),
    'SwSTEP 2.0',
    'SolidWorks 2019',
    '' );
FILE_SCHEMA (( 'CONFIG_CONTROL_DESIGN' ));
ENDSEC;

DATA;
#1 = APPLICATION_PROTOCOL_DEFINITION ( 'international standard', 'config_control_design', 1994, #69 ) ;
#2 = APPROVAL_STATUS ( 'not_yet_approved' ) ;
#3 = ORIENTED_EDGE ( 'NONE', *, *, #177, .F. ) ;
#4 = EDGE_LOOP ( 'NONE', ( #206 ) ) ;
#5 = SHAPE_DEFINITION_REPRESENTATION ( #158, #52 ) ;
#6 = EDGE_CURVE ( 'NONE', #171, #171, #23, .T. ) ;
#7 = COORDINATED_UNIVERSAL_TIME_OFFSET ( 1, 0, .AHEAD. ) ;
#8 = PERSON_AND_ORGANIZATION ( #185, #90 ) ;
#9 = CONICAL_SURFACE ( 'NONE', #81, 0.6500000000000000222, 0.7853981633974510546 ) ;
#10 = DIRECTION ( 'NONE',  ( -3.491481338843133355E-15, 1.224646799147353207E-16, -1.000000000000000000 ) ) ;
#11 = ORIENTED_EDGE ( 'NONE', *, *, #6, .T. ) ;
#12 = DIRECTION ( 'NONE',  ( -3.491481338843133355E-15, 1.224646799147353207E-16, -1.000000000000000000 ) ) ;
#13 = EDGE_CURVE ( 'NONE', #168, #168, #40, .T. ) ;
#14 = DIRECTION ( 'NONE',  ( -3.491481338843133355E-15, 1.224646799147353207E-16, -1.000000000000000000 ) ) ;
#15 = DESIGN_CONTEXT ( 'detailed design', #69, 'design' ) ;
#16 = CARTESIAN_POINT ( 'NONE',  ( 1.047444401652940007E-13, -3.673940397442059178E-15, 30.00000000000000000 ) ) ;
#17 = CC_DESIGN_APPROVAL ( #126, ( #67 ) ) ;
#18 = VERTEX_POINT ( 'NONE', #20 ) ;
#19 = DIRECTION ( 'NONE',  ( -4.275831445896958607E-31, -1.000000000000000000, -1.224646799147353207E-16 ) ) ;
#20 = CARTESIAN_POINT ( 'NONE',  ( 2.478951750578624367E-14, 0.4349999999999991651, 7.099999999999999645 ) ) ;
#21 = CARTESIAN_POINT ( 'NONE',  ( 2.478951750578624367E-14, 3.261977527289527844E-33, 7.099999999999999645 ) ) ;
#22 = ADVANCED_FACE ( 'NONE', ( #163 ), #221, .T. ) ;
#23 = CIRCLE ( 'NONE', #91, 0.7499999999999973355 ) ;
#24 = PERSON_AND_ORGANIZATION ( #185, #90 ) ;
#25 = PERSON_AND_ORGANIZATION_ROLE ( 'design_supplier' ) ;
#26 = CC_DESIGN_PERSON_AND_ORGANIZATION_ASSIGNMENT ( #176, #217, ( #198 ) ) ;
#27 = PERSON_AND_ORGANIZATION ( #185, #90 ) ;
#28 = CARTESIAN_POINT ( 'NONE',  ( 2.669445577364105246E-14, -9.363154674342902778E-16, 7.645596004384199063 ) ) ;
#29 = ADVANCED_FACE ( 'NONE', ( #162, #222 ), #219, .T. ) ;
#30 = ORIENTED_EDGE ( 'NONE', *, *, #38, .F. ) ;
#31 = CARTESIAN_POINT ( 'NONE',  ( 2.478951750578624367E-14, 3.261977527289527844E-33, 7.099999999999999645 ) ) ;
#32 = CIRCLE ( 'NONE', #60, 0.6500000000000000222 ) ;
#33 = ORIENTED_EDGE ( 'NONE', *, *, #170, .F. ) ;
#34 = DIRECTION ( 'NONE',  ( -3.491481338843133355E-15, 1.224646799147353207E-16, -1.000000000000000000 ) ) ;
#35 = VERTEX_POINT ( 'NONE', #80 ) ;
#36 = PERSON_AND_ORGANIZATION_ROLE ( 'creator' ) ;
#37 = CARTESIAN_POINT ( 'NONE',  ( 1.043952920314096810E-13, 0.7499999999999962252, 29.89999999999999858 ) ) ;
#38 = EDGE_CURVE ( 'NONE', #18, #18, #133, .T. ) ;
#39 = AXIS2_PLACEMENT_3D ( 'NONE', #102, #34, #118 ) ;
#40 = CIRCLE ( 'NONE', #119, 0.4350000000000000533 ) ;
#41 = CALENDAR_DATE ( 2021, 8, 10 ) ;
#42 = LOCAL_TIME ( 7, 54, 14.00000000000000000, #215 ) ;
#43 = PLANE ( 'NONE',  #105 ) ;
#44 = DIRECTION ( 'NONE',  ( -3.491481338843133355E-15, 1.224646799147353207E-16, -1.000000000000000000 ) ) ;
#45 = ORIENTED_EDGE ( 'NONE', *, *, #89, .F. ) ;
#46 = FACE_OUTER_BOUND ( 'NONE', #47, .T. ) ;
#47 = EDGE_LOOP ( 'NONE', ( #11 ) ) ;
#48 = FACE_OUTER_BOUND ( 'NONE', #92, .T. ) ;
#49 = AXIS2_PLACEMENT_3D ( 'NONE', #113, #141, #218 ) ;
#50 = CC_DESIGN_DATE_AND_TIME_ASSIGNMENT ( #88, #73, ( #67 ) ) ;
#51 = DATE_AND_TIME ( #211, #128 ) ;
#52 = ADVANCED_BREP_SHAPE_REPRESENTATION ( '957998', ( #147, #148, #109 ), #54 ) ;
#53 = CALENDAR_DATE ( 2021, 8, 10 ) ;
#54 =( GEOMETRIC_REPRESENTATION_CONTEXT ( 3 ) GLOBAL_UNCERTAINTY_ASSIGNED_CONTEXT ( ( #96 ) ) GLOBAL_UNIT_ASSIGNED_CONTEXT ( ( #70, #64, #84 ) ) REPRESENTATION_CONTEXT ( 'NONE', 'WORKASPACE' ) );
#55 = APPROVAL ( #138, 'UNSPECIFIED' ) ;
#56 = APPROVAL_ROLE ( '' ) ;
#57 = AXIS2_PLACEMENT_3D ( 'NONE', #93, #58, #161 ) ;
#58 = DIRECTION ( 'NONE',  ( 3.491481338843133355E-15, -1.224646799147353207E-16, 1.000000000000000000 ) ) ;
#59 = ORIENTED_EDGE ( 'NONE', *, *, #177, .T. ) ;
#60 = AXIS2_PLACEMENT_3D ( 'NONE', #199, #79, #125 ) ;
#61 = DIRECTION ( 'NONE',  ( 0.0000000000000000000, 1.000000000000000000, 0.0000000000000000000 ) ) ;
#62 = FACE_BOUND ( 'NONE', #137, .T. ) ;
#63 = CARTESIAN_POINT ( 'NONE',  ( 0.0000000000000000000, 0.0000000000000000000, 0.0000000000000000000 ) ) ;
#64 =( NAMED_UNIT ( * ) PLANE_ANGLE_UNIT ( ) SI_UNIT ( $, .RADIAN. ) );
#65 = APPROVAL_PERSON_ORGANIZATION ( #8, #83, #56 ) ;
#66 = PLANE ( 'NONE',  #154 ) ;
#67 = PRODUCT_DEFINITION ( 'UNKNOWN', '', #198, #15 ) ;
#68 = DIRECTION ( 'NONE',  ( 1.000000000000000000, 0.0000000000000000000, 0.0000000000000000000 ) ) ;
#69 = APPLICATION_CONTEXT ( 'configuration controlled 3d designs of mechanical parts and assemblies' ) ;
#70 =( LENGTH_UNIT ( ) NAMED_UNIT ( * ) SI_UNIT ( .MILLI., .METRE. ) );
#71 = EDGE_LOOP ( 'NONE', ( #45 ) ) ;
#72 = CALENDAR_DATE ( 2021, 8, 10 ) ;
#73 = DATE_TIME_ROLE ( 'creation_date' ) ;
#74 = CC_DESIGN_DATE_AND_TIME_ASSIGNMENT ( #156, #87, ( #99 ) ) ;
#75 = APPROVAL_DATE_TIME ( #139, #55 ) ;
#76 = ORIENTED_EDGE ( 'NONE', *, *, #13, .F. ) ;
#77 = DIRECTION ( 'NONE',  ( -3.491481338843133355E-15, 1.224646799147353207E-16, -1.000000000000000000 ) ) ;
#78 = AXIS2_PLACEMENT_3D ( 'NONE', #63, #143, #201 ) ;
#79 = DIRECTION ( 'NONE',  ( -3.491481338843133355E-15, 1.224646799147353207E-16, -1.000000000000000000 ) ) ;
#80 = CARTESIAN_POINT ( 'NONE',  ( 1.047444401652940007E-13, 0.6499999999999962474, 30.00000000000000000 ) ) ;
#81 = AXIS2_PLACEMENT_3D ( 'NONE', #16, #44, #112 ) ;
#82 = FACE_OUTER_BOUND ( 'NONE', #142, .T. ) ;
#83 = APPROVAL ( #120, 'UNSPECIFIED' ) ;
#84 =( NAMED_UNIT ( * ) SI_UNIT ( $, .STERADIAN. ) SOLID_ANGLE_UNIT ( ) );
#85 = DIRECTION ( 'NONE',  ( 0.0000000000000000000, 0.0000000000000000000, 1.000000000000000000 ) ) ;
#86 = ORIENTED_EDGE ( 'NONE', *, *, #38, .T. ) ;
#87 = DATE_TIME_ROLE ( 'classification_date' ) ;
#88 = DATE_AND_TIME ( #72, #213 ) ;
#89 = EDGE_CURVE ( 'NONE', #35, #35, #32, .T. ) ;
#90 = ORGANIZATION ( 'UNSPECIFIED', 'UNSPECIFIED', '' ) ;
#91 = AXIS2_PLACEMENT_3D ( 'NONE', #28, #111, #110 ) ;
#92 = EDGE_LOOP ( 'NONE', ( #157 ) ) ;
#93 = CARTESIAN_POINT ( 'NONE',  ( 8.768763455204708312E-16, -3.075668192302259093E-17, 0.2511473670974895822 ) ) ;
#94 = DIRECTION ( 'NONE',  ( 0.0000000000000000000, 1.000000000000000000, 0.0000000000000000000 ) ) ;
#95 = DIRECTION ( 'NONE',  ( -4.275831445896958607E-31, -1.000000000000000000, -1.224646799147353207E-16 ) ) ;
#96 = UNCERTAINTY_MEASURE_WITH_UNIT (LENGTH_MEASURE( 1.000000000000000082E-05 ), #70, 'distance_accuracy_value', 'NONE');
#97 = ADVANCED_FACE ( 'NONE', ( #98 ), #127, .F. ) ;
#98 = FACE_OUTER_BOUND ( 'NONE', #71, .T. ) ;
#99 = SECURITY_CLASSIFICATION ( '', '', #175 ) ;
#100 = MECHANICAL_CONTEXT ( 'NONE', #207, 'mechanical' ) ;
#101 = CC_DESIGN_PERSON_AND_ORGANIZATION_ASSIGNMENT ( #208, #186, ( #160 ) ) ;
#102 = CARTESIAN_POINT ( 'NONE',  ( 0.0000000000000000000, 0.0000000000000000000, 0.0000000000000000000 ) ) ;
#103 = CARTESIAN_POINT ( 'NONE',  ( 2.669445577364105246E-14, 0.7499999999999963363, 7.645596004384199063 ) ) ;
#104 = DIRECTION ( 'NONE',  ( 3.491481338843133355E-15, -1.224646799147353207E-16, 1.000000000000000000 ) ) ;
#105 = AXIS2_PLACEMENT_3D ( 'NONE', #31, #178, #95 ) ;
#106 = LOCAL_TIME ( 7, 54, 14.00000000000000000, #197 ) ;
#107 = CALENDAR_DATE ( 2021, 8, 10 ) ;
#108 = DATE_AND_TIME ( #41, #106 ) ;
#109 = AXIS2_PLACEMENT_3D ( 'NONE', #114, #85, #68 ) ;
#110 = DIRECTION ( 'NONE',  ( 0.0000000000000000000, 1.000000000000000000, 0.0000000000000000000 ) ) ;
#111 = DIRECTION ( 'NONE',  ( -3.491481338843133355E-15, 1.224646799147353207E-16, -1.000000000000000000 ) ) ;
#112 = DIRECTION ( 'NONE',  ( 0.0000000000000000000, 1.000000000000000000, 0.0000000000000000000 ) ) ;
#113 = CARTESIAN_POINT ( 'NONE',  ( 2.669445577364105246E-14, -9.363154674342902778E-16, 7.645596004384199063 ) ) ;
#114 = CARTESIAN_POINT ( 'NONE',  ( 0.0000000000000000000, 0.0000000000000000000, 0.0000000000000000000 ) ) ;
#115 = ADVANCED_FACE ( 'NONE', ( #146, #166 ), #9, .T. ) ;
#116 = APPROVAL_ROLE ( '' ) ;
#117 = APPROVAL_DATE_TIME ( #51, #126 ) ;
#118 = DIRECTION ( 'NONE',  ( 4.275831445896958607E-31, 1.000000000000000000, 1.224646799147353207E-16 ) ) ;
#119 = AXIS2_PLACEMENT_3D ( 'NONE', #220, #77, #94 ) ;
#120 = APPROVAL_STATUS ( 'not_yet_approved' ) ;
#121 = CLOSED_SHELL ( 'NONE', ( #22, #200, #152 ) ) ;
#122 = APPROVAL_ROLE ( '' ) ;
#123 = CARTESIAN_POINT ( 'NONE',  ( 2.478951750578624367E-14, -8.694992273946207746E-16, 7.099999999999999645 ) ) ;
#124 = DIRECTION ( 'NONE',  ( 4.275831445896958607E-31, 1.000000000000000000, 1.224646799147353207E-16 ) ) ;
#125 = DIRECTION ( 'NONE',  ( 0.0000000000000000000, 1.000000000000000000, 0.0000000000000000000 ) ) ;
#126 = APPROVAL ( #2, 'UNSPECIFIED' ) ;
#127 = PLANE ( 'NONE',  #149 ) ;
#128 = LOCAL_TIME ( 7, 54, 14.00000000000000000, #132 ) ;
#129 = EDGE_LOOP ( 'NONE', ( #155 ) ) ;
#130 = DIRECTION ( 'NONE',  ( 0.0000000000000000000, 1.000000000000000000, 0.0000000000000000000 ) ) ;
#131 = CARTESIAN_POINT ( 'NONE',  ( 2.478951750578624367E-14, 0.4349999999999991651, 7.099999999999999645 ) ) ;
#132 = COORDINATED_UNIVERSAL_TIME_OFFSET ( 1, 0, .AHEAD. ) ;
#133 = CIRCLE ( 'NONE', #223, 0.4350000000000000533 ) ;
#134 = ADVANCED_FACE ( 'NONE', ( #62, #46 ), #144, .T. ) ;
#135 = DIRECTION ( 'NONE',  ( -3.491481338843133355E-15, 1.224646799147353207E-16, -1.000000000000000000 ) ) ;
#136 = LOCAL_TIME ( 7, 54, 14.00000000000000000, #174 ) ;
#137 = EDGE_LOOP ( 'NONE', ( #76 ) ) ;
#138 = APPROVAL_STATUS ( 'not_yet_approved' ) ;
#139 = DATE_AND_TIME ( #107, #136 ) ;
#140 = PERSON_AND_ORGANIZATION ( #185, #90 ) ;
#141 = DIRECTION ( 'NONE',  ( 3.491481338843133355E-15, -1.224646799147353207E-16, 1.000000000000000000 ) ) ;
#142 = EDGE_LOOP ( 'NONE', ( #86 ) ) ;
#143 = DIRECTION ( 'NONE',  ( -3.491481338843133355E-15, 1.224646799147353207E-16, -1.000000000000000000 ) ) ;
#144 = CONICAL_SURFACE ( 'NONE', #49, 0.7499999999999973355, 0.5235987755982927094 ) ;
#145 = EDGE_LOOP ( 'NONE', ( #33 ) ) ;
#146 = FACE_OUTER_BOUND ( 'NONE', #203, .T. ) ;
#147 = MANIFOLD_SOLID_BREP ( 'Corps-Déplacer/Copier1[1]', #192 ) ;
#148 = MANIFOLD_SOLID_BREP ( 'Corps-Déplacer/Copier1[2]', #121 ) ;
#149 = AXIS2_PLACEMENT_3D ( 'NONE', #202, #10, #124 ) ;
#150 = VERTEX_POINT ( 'NONE', #167 ) ;
#151 = CC_DESIGN_APPROVAL ( #55, ( #198 ) ) ;
#152 = ADVANCED_FACE ( 'NONE', ( #182 ), #43, .T. ) ;
#153 = PERSON_AND_ORGANIZATION ( #185, #90 ) ;
#154 = AXIS2_PLACEMENT_3D ( 'NONE', #21, #104, #19 ) ;
#155 = ORIENTED_EDGE ( 'NONE', *, *, #6, .F. ) ;
#156 = DATE_AND_TIME ( #53, #42 ) ;
#157 = ORIENTED_EDGE ( 'NONE', *, *, #13, .T. ) ;
#158 = PRODUCT_DEFINITION_SHAPE ( 'NONE', 'NONE',  #67 ) ;
#159 = CC_DESIGN_PERSON_AND_ORGANIZATION_ASSIGNMENT ( #24, #216, ( #99 ) ) ;
#160 = PRODUCT ( '957998', '957998', '', ( #100 ) ) ;
#161 = DIRECTION ( 'NONE',  ( -4.427425159510895857E-31, -1.000000000000000000, -1.246209393661501837E-16 ) ) ;
#162 = FACE_OUTER_BOUND ( 'NONE', #129, .T. ) ;
#163 = FACE_OUTER_BOUND ( 'NONE', #172, .T. ) ;
#164 = CIRCLE ( 'NONE', #196, 0.7499999999999998890 ) ;
#165 = CARTESIAN_POINT ( 'NONE',  ( 8.768763455204708312E-16, -3.075668192302259093E-17, 0.2511473670974895822 ) ) ;
#166 = FACE_BOUND ( 'NONE', #4, .T. ) ;
#167 = CARTESIAN_POINT ( 'NONE',  ( 8.768763455204710284E-16, 0.4349999999999991096, 0.2511473670974896377 ) ) ;
#168 = VERTEX_POINT ( 'NONE', #131 ) ;
#169 = CYLINDRICAL_SURFACE ( 'NONE', #39, 0.4349999999999996092 ) ;
#170 = EDGE_CURVE ( 'NONE', #150, #150, #214, .T. ) ;
#171 = VERTEX_POINT ( 'NONE', #103 ) ;
#172 = EDGE_LOOP ( 'NONE', ( #181 ) ) ;
#173 = PRODUCT_RELATED_PRODUCT_CATEGORY ( 'detail', '', ( #160 ) ) ;
#174 = COORDINATED_UNIVERSAL_TIME_OFFSET ( 1, 0, .AHEAD. ) ;
#175 = SECURITY_CLASSIFICATION_LEVEL ( 'unclassified' ) ;
#176 = PERSON_AND_ORGANIZATION ( #185, #90 ) ;
#177 = EDGE_CURVE ( 'NONE', #191, #191, #164, .T. ) ;
#178 = DIRECTION ( 'NONE',  ( 3.491481338843133355E-15, -1.224646799147353207E-16, 1.000000000000000000 ) ) ;
#179 = CC_DESIGN_PERSON_AND_ORGANIZATION_ASSIGNMENT ( #189, #36, ( #67 ) ) ;
#180 = EDGE_LOOP ( 'NONE', ( #30 ) ) ;
#181 = ORIENTED_EDGE ( 'NONE', *, *, #170, .T. ) ;
#182 = FACE_OUTER_BOUND ( 'NONE', #180, .T. ) ;
#183 = EDGE_LOOP ( 'NONE', ( #59 ) ) ;
#184 = APPLICATION_PROTOCOL_DEFINITION ( 'international standard', 'config_control_design', 1994, #207 ) ;
#185 = PERSON ( 'UNSPECIFIED', 'UNSPECIFIED', 'UNSPECIFIED', ('UNSPECIFIED'), ('UNSPECIFIED'), ('UNSPECIFIED') ) ;
#186 = PERSON_AND_ORGANIZATION_ROLE ( 'design_owner' ) ;
#187 = AXIS2_PLACEMENT_3D ( 'NONE', #165, #14, #210 ) ;
#188 = CARTESIAN_POINT ( 'NONE',  ( 1.043952920314096810E-13, -3.661693929450586610E-15, 29.89999999999999858 ) ) ;
#189 = PERSON_AND_ORGANIZATION ( #185, #90 ) ;
#190 = CC_DESIGN_SECURITY_CLASSIFICATION ( #99, ( #198 ) ) ;
#191 = VERTEX_POINT ( 'NONE', #37 ) ;
#192 = CLOSED_SHELL ( 'NONE', ( #195, #134, #29, #115, #97 ) ) ;
#193 = APPROVAL_DATE_TIME ( #108, #83 ) ;
#194 = CC_DESIGN_APPROVAL ( #83, ( #99 ) ) ;
#195 = ADVANCED_FACE ( 'NONE', ( #48 ), #66, .F. ) ;
#196 = AXIS2_PLACEMENT_3D ( 'NONE', #188, #135, #130 ) ;
#197 = COORDINATED_UNIVERSAL_TIME_OFFSET ( 1, 0, .AHEAD. ) ;
#198 = PRODUCT_DEFINITION_FORMATION_WITH_SPECIFIED_SOURCE ( 'ANY', '', #160, .NOT_KNOWN. ) ;
#199 = CARTESIAN_POINT ( 'NONE',  ( 1.047444401652940007E-13, -3.673940397442059178E-15, 30.00000000000000000 ) ) ;
#200 = ADVANCED_FACE ( 'NONE', ( #212, #82 ), #169, .T. ) ;
#201 = DIRECTION ( 'NONE',  ( 4.275831445896959482E-31, 1.000000000000000000, 1.224646799147353454E-16 ) ) ;
#202 = CARTESIAN_POINT ( 'NONE',  ( 1.047444401652940007E-13, 4.874219293650981803E-33, 30.00000000000000000 ) ) ;
#203 = EDGE_LOOP ( 'NONE', ( #3 ) ) ;
#204 = APPROVAL_PERSON_ORGANIZATION ( #27, #55, #122 ) ;
#205 = CC_DESIGN_PERSON_AND_ORGANIZATION_ASSIGNMENT ( #140, #25, ( #198 ) ) ;
#206 = ORIENTED_EDGE ( 'NONE', *, *, #89, .T. ) ;
#207 = APPLICATION_CONTEXT ( 'configuration controlled 3d designs of mechanical parts and assemblies' ) ;
#208 = PERSON_AND_ORGANIZATION ( #185, #90 ) ;
#209 = APPROVAL_PERSON_ORGANIZATION ( #153, #126, #116 ) ;
#210 = DIRECTION ( 'NONE',  ( 4.427425159510895857E-31, 1.000000000000000000, 1.246209393661501837E-16 ) ) ;
#211 = CALENDAR_DATE ( 2021, 8, 10 ) ;
#212 = FACE_OUTER_BOUND ( 'NONE', #145, .T. ) ;
#213 = LOCAL_TIME ( 7, 54, 14.00000000000000000, #7 ) ;
#214 = CIRCLE ( 'NONE', #187, 0.4349999999999991651 ) ;
#215 = COORDINATED_UNIVERSAL_TIME_OFFSET ( 1, 0, .AHEAD. ) ;
#216 = PERSON_AND_ORGANIZATION_ROLE ( 'classification_officer' ) ;
#217 = PERSON_AND_ORGANIZATION_ROLE ( 'creator' ) ;
#218 = DIRECTION ( 'NONE',  ( 0.0000000000000000000, -1.000000000000000000, 0.0000000000000000000 ) ) ;
#219 = CYLINDRICAL_SURFACE ( 'NONE', #78, 0.7499999999999985567 ) ;
#220 = CARTESIAN_POINT ( 'NONE',  ( 2.478951750578624367E-14, -8.694992273946207746E-16, 7.099999999999999645 ) ) ;
#221 = CONICAL_SURFACE ( 'NONE', #57, 0.4349999999999991651, 1.047197551196592968 ) ;
#222 = FACE_OUTER_BOUND ( 'NONE', #183, .T. ) ;
#223 = AXIS2_PLACEMENT_3D ( 'NONE', #123, #12, #61 ) ;
ENDSEC;
END-ISO-10303-21;
