ISO-10303-21;
HEADER;
FILE_DESCRIPTION (( 'STEP AP203' ),
    '1' );
FILE_NAME ('957996.step',
    '2021-10-08T08:13:03',
    ( '' ),
    ( '' ),
    'SwSTEP 2.0',
    'SolidWorks 2019',
    '' );
FILE_SCHEMA (( 'CONFIG_CONTROL_DESIGN' ));
ENDSEC;

DATA;
#1 = DATE_TIME_ROLE ( 'creation_date' ) ;
#2 = LOCAL_TIME ( 10, 13, 3.000000000000000000, #17 ) ;
#3 = APPLICATION_CONTEXT ( 'configuration controlled 3d designs of mechanical parts and assemblies' ) ;
#4 = ADVANCED_FACE ( 'NONE', ( #58 ), #131, .F. ) ;
#5 = CARTESIAN_POINT ( 'NONE',  ( 2.478951750578624367E-14, 0.4299999999999998268, 7.099999999999999645 ) ) ;
#6 = CONICAL_SURFACE ( 'NONE', #203, 0.6500000000000000222, 0.7853981633974516097 ) ;
#7 = DIRECTION ( 'NONE',  ( -3.491481338843133355E-15, 1.224646799147353207E-16, -1.000000000000000000 ) ) ;
#8 = DIRECTION ( 'NONE',  ( 4.275831445896958607E-31, 1.000000000000000000, 1.224646799147353207E-16 ) ) ;
#9 = VERTEX_POINT ( 'NONE', #174 ) ;
#10 = DIRECTION ( 'NONE',  ( 0.0000000000000000000, 1.000000000000000000, 0.0000000000000000000 ) ) ;
#11 = DIRECTION ( 'NONE',  ( 1.000000000000000000, 0.0000000000000000000, 0.0000000000000000000 ) ) ;
#12 = PRODUCT_RELATED_PRODUCT_CATEGORY ( 'detail', '', ( #213 ) ) ;
#13 = CALENDAR_DATE ( 2021, 8, 10 ) ;
#14 = PRODUCT_DEFINITION ( 'UNKNOWN', '', #211, #64 ) ;
#15 = AXIS2_PLACEMENT_3D ( 'NONE', #97, #199, #173 ) ;
#16 = PERSON_AND_ORGANIZATION ( #81, #89 ) ;
#17 = COORDINATED_UNIVERSAL_TIME_OFFSET ( 1, 0, .AHEAD. ) ;
#18 = CALENDAR_DATE ( 2021, 8, 10 ) ;
#19 = SECURITY_CLASSIFICATION ( '', '', #161 ) ;
#20 = CARTESIAN_POINT ( 'NONE',  ( 2.478951750578624367E-14, 3.224483532722986604E-33, 7.099999999999999645 ) ) ;
#21 = ORIENTED_EDGE ( 'NONE', *, *, #146, .T. ) ;
#22 = PRODUCT_DEFINITION_SHAPE ( 'NONE', 'NONE',  #14 ) ;
#23 = ORIENTED_EDGE ( 'NONE', *, *, #155, .F. ) ;
#24 = EDGE_LOOP ( 'NONE', ( #95 ) ) ;
#25 = ORIENTED_EDGE ( 'NONE', *, *, #210, .F. ) ;
#26 = VERTEX_POINT ( 'NONE', #220 ) ;
#27 = DIRECTION ( 'NONE',  ( 4.478906847412184468E-31, 1.000000000000000000, 1.260700200564542310E-16 ) ) ;
#28 = CC_DESIGN_PERSON_AND_ORGANIZATION_ASSIGNMENT ( #109, #51, ( #213 ) ) ;
#29 = AXIS2_PLACEMENT_3D ( 'NONE', #202, #214, #41 ) ;
#30 = FACE_BOUND ( 'NONE', #24, .T. ) ;
#31 = DIRECTION ( 'NONE',  ( -3.491481338843133355E-15, 1.224646799147353207E-16, -1.000000000000000000 ) ) ;
#32 = CC_DESIGN_DATE_AND_TIME_ASSIGNMENT ( #83, #1, ( #14 ) ) ;
#33 = DIRECTION ( 'NONE',  ( -3.491481338843133355E-15, 1.224646799147353207E-16, -1.000000000000000000 ) ) ;
#34 = AXIS2_PLACEMENT_3D ( 'NONE', #96, #7, #10 ) ;
#35 = PERSON_AND_ORGANIZATION_ROLE ( 'creator' ) ;
#36 = CARTESIAN_POINT ( 'NONE',  ( 1.043952920314096810E-13, 0.7499999999999963363, 29.89999999999999858 ) ) ;
#37 = AXIS2_PLACEMENT_3D ( 'NONE', #186, #172, #61 ) ;
#38 = PLANE ( 'NONE',  #133 ) ;
#39 = ORIENTED_EDGE ( 'NONE', *, *, #98, .F. ) ;
#40 = CC_DESIGN_PERSON_AND_ORGANIZATION_ASSIGNMENT ( #48, #125, ( #211 ) ) ;
#41 = DIRECTION ( 'NONE',  ( 4.275831445896959482E-31, 1.000000000000000000, 1.224646799147353207E-16 ) ) ;
#42 = DIRECTION ( 'NONE',  ( -3.491481338843133355E-15, 1.224646799147353207E-16, -1.000000000000000000 ) ) ;
#43 = CARTESIAN_POINT ( 'NONE',  ( 2.478951750578624367E-14, 3.224483532722986604E-33, 7.099999999999999645 ) ) ;
#44 = ADVANCED_FACE ( 'NONE', ( #209 ), #38, .T. ) ;
#45 = FACE_OUTER_BOUND ( 'NONE', #73, .T. ) ;
#46 = APPLICATION_CONTEXT ( 'configuration controlled 3d designs of mechanical parts and assemblies' ) ;
#47 = APPROVAL_DATE_TIME ( #70, #135 ) ;
#48 = PERSON_AND_ORGANIZATION ( #81, #89 ) ;
#49 = APPROVAL ( #71, 'UNSPECIFIED' ) ;
#50 = APPROVAL_ROLE ( '' ) ;
#51 = PERSON_AND_ORGANIZATION_ROLE ( 'design_owner' ) ;
#52 =( NAMED_UNIT ( * ) SI_UNIT ( $, .STERADIAN. ) SOLID_ANGLE_UNIT ( ) );
#53 = EDGE_LOOP ( 'NONE', ( #169 ) ) ;
#54 = APPROVAL_PERSON_ORGANIZATION ( #179, #135, #50 ) ;
#55 = ORIENTED_EDGE ( 'NONE', *, *, #142, .F. ) ;
#56 = CC_DESIGN_PERSON_AND_ORGANIZATION_ASSIGNMENT ( #16, #140, ( #19 ) ) ;
#57 = ORIENTED_EDGE ( 'NONE', *, *, #210, .T. ) ;
#58 = FACE_OUTER_BOUND ( 'NONE', #150, .T. ) ;
#59 = CARTESIAN_POINT ( 'NONE',  ( 0.0000000000000000000, 0.0000000000000000000, 0.0000000000000000000 ) ) ;
#60 = CONICAL_SURFACE ( 'NONE', #15, 0.7499999999999973355, 0.5235987755982919323 ) ;
#61 = DIRECTION ( 'NONE',  ( 0.0000000000000000000, 1.000000000000000000, 0.0000000000000000000 ) ) ;
#62 = CC_DESIGN_DATE_AND_TIME_ASSIGNMENT ( #69, #143, ( #19 ) ) ;
#63 = PLANE ( 'NONE',  #141 ) ;
#64 = DESIGN_CONTEXT ( 'detailed design', #46, 'design' ) ;
#65 = DIRECTION ( 'NONE',  ( -3.491481338843133355E-15, 1.224646799147353207E-16, -1.000000000000000000 ) ) ;
#66 = CIRCLE ( 'NONE', #84, 0.4300000000000007150 ) ;
#67 =( NAMED_UNIT ( * ) PLANE_ANGLE_UNIT ( ) SI_UNIT ( $, .RADIAN. ) );
#68 = PERSON_AND_ORGANIZATION_ROLE ( 'creator' ) ;
#69 = DATE_AND_TIME ( #192, #208 ) ;
#70 = DATE_AND_TIME ( #87, #2 ) ;
#71 = APPROVAL_STATUS ( 'not_yet_approved' ) ;
#72 = CC_DESIGN_APPROVAL ( #223, ( #19 ) ) ;
#73 = EDGE_LOOP ( 'NONE', ( #180 ) ) ;
#74 = DIRECTION ( 'NONE',  ( 3.491481338843133355E-15, -1.224646799147353207E-16, 1.000000000000000000 ) ) ;
#75 = AXIS2_PLACEMENT_3D ( 'NONE', #117, #33, #184 ) ;
#76 = DIRECTION ( 'NONE',  ( 0.0000000000000000000, 1.000000000000000000, 0.0000000000000000000 ) ) ;
#77 = DIRECTION ( 'NONE',  ( -3.491481338843133355E-15, 1.224646799147353207E-16, -1.000000000000000000 ) ) ;
#78 = CARTESIAN_POINT ( 'NONE',  ( 2.672469288900382750E-14, 0.7499999999999963363, 7.654256258422043047 ) ) ;
#79 =( GEOMETRIC_REPRESENTATION_CONTEXT ( 3 ) GLOBAL_UNCERTAINTY_ASSIGNED_CONTEXT ( ( #182 ) ) GLOBAL_UNIT_ASSIGNED_CONTEXT ( ( #126, #67, #52 ) ) REPRESENTATION_CONTEXT ( 'NONE', 'WORKASPACE' ) );
#80 = CYLINDRICAL_SURFACE ( 'NONE', #29, 0.7499999999999986677 ) ;
#81 = PERSON ( 'UNSPECIFIED', 'UNSPECIFIED', 'UNSPECIFIED', ('UNSPECIFIED'), ('UNSPECIFIED'), ('UNSPECIFIED') ) ;
#82 = PERSON_AND_ORGANIZATION ( #81, #89 ) ;
#83 = DATE_AND_TIME ( #13, #103 ) ;
#84 = AXIS2_PLACEMENT_3D ( 'NONE', #204, #77, #183 ) ;
#85 = APPROVAL_ROLE ( '' ) ;
#86 = ADVANCED_FACE ( 'NONE', ( #132 ), #63, .F. ) ;
#87 = CALENDAR_DATE ( 2021, 8, 10 ) ;
#88 = CC_DESIGN_APPROVAL ( #135, ( #14 ) ) ;
#89 = ORGANIZATION ( 'UNSPECIFIED', 'UNSPECIFIED', '' ) ;
#90 = AXIS2_PLACEMENT_3D ( 'NONE', #137, #31, #27 ) ;
#91 = ORIENTED_EDGE ( 'NONE', *, *, #142, .T. ) ;
#92 = CC_DESIGN_PERSON_AND_ORGANIZATION_ASSIGNMENT ( #122, #68, ( #14 ) ) ;
#93 = EDGE_LOOP ( 'NONE', ( #25 ) ) ;
#94 = AXIS2_PLACEMENT_3D ( 'NONE', #171, #118, #76 ) ;
#95 = ORIENTED_EDGE ( 'NONE', *, *, #146, .F. ) ;
#96 = CARTESIAN_POINT ( 'NONE',  ( 2.672469288900382750E-14, -9.373760426730151248E-16, 7.654256258422043047 ) ) ;
#97 = CARTESIAN_POINT ( 'NONE',  ( 2.672469288900382750E-14, -9.373760426730151248E-16, 7.654256258422043047 ) ) ;
#98 = EDGE_CURVE ( 'NONE', #9, #9, #190, .T. ) ;
#99 = DIRECTION ( 'NONE',  ( 3.491481338843133355E-15, -1.224646799147353207E-16, 1.000000000000000000 ) ) ;
#100 = FACE_OUTER_BOUND ( 'NONE', #197, .T. ) ;
#101 = MANIFOLD_SOLID_BREP ( 'Corps-Déplacer/Copier1[2]', #165 ) ;
#102 = CYLINDRICAL_SURFACE ( 'NONE', #159, 0.4299999999999999378 ) ;
#103 = LOCAL_TIME ( 10, 13, 3.000000000000000000, #163 ) ;
#104 = ADVANCED_FACE ( 'NONE', ( #136, #218 ), #6, .T. ) ;
#105 = COORDINATED_UNIVERSAL_TIME_OFFSET ( 1, 0, .AHEAD. ) ;
#106 = MANIFOLD_SOLID_BREP ( 'Corps-Déplacer/Copier1[1]', #206 ) ;
#107 = APPROVAL_STATUS ( 'not_yet_approved' ) ;
#108 = AXIS2_PLACEMENT_3D ( 'NONE', #194, #221, #11 ) ;
#109 = PERSON_AND_ORGANIZATION ( #81, #89 ) ;
#110 = APPLICATION_PROTOCOL_DEFINITION ( 'international standard', 'config_control_design', 1994, #3 ) ;
#111 = EDGE_LOOP ( 'NONE', ( #167 ) ) ;
#112 = ADVANCED_FACE ( 'NONE', ( #30, #120 ), #60, .T. ) ;
#113 = EDGE_LOOP ( 'NONE', ( #91 ) ) ;
#114 = EDGE_LOOP ( 'NONE', ( #55 ) ) ;
#115 = EDGE_CURVE ( 'NONE', #200, #200, #168, .T. ) ;
#116 = CARTESIAN_POINT ( 'NONE',  ( 8.667973070662126807E-16, -3.040315684344762549E-17, 0.2482606157515414858 ) ) ;
#117 = CARTESIAN_POINT ( 'NONE',  ( 2.478951750578624367E-14, -8.694992273946207746E-16, 7.099999999999999645 ) ) ;
#118 = DIRECTION ( 'NONE',  ( -3.491481338843133355E-15, 1.224646799147353207E-16, -1.000000000000000000 ) ) ;
#119 = CIRCLE ( 'NONE', #75, 0.4300000000000007150 ) ;
#120 = FACE_OUTER_BOUND ( 'NONE', #111, .T. ) ;
#121 = DIRECTION ( 'NONE',  ( -4.478906847412184468E-31, -1.000000000000000000, -1.260700200564542310E-16 ) ) ;
#122 = PERSON_AND_ORGANIZATION ( #81, #89 ) ;
#123 = LOCAL_TIME ( 10, 13, 3.000000000000000000, #105 ) ;
#124 = AXIS2_PLACEMENT_3D ( 'NONE', #20, #166, #198 ) ;
#125 = PERSON_AND_ORGANIZATION_ROLE ( 'design_supplier' ) ;
#126 =( LENGTH_UNIT ( ) NAMED_UNIT ( * ) SI_UNIT ( .MILLI., .METRE. ) );
#127 = APPLICATION_PROTOCOL_DEFINITION ( 'international standard', 'config_control_design', 1994, #46 ) ;
#128 = CIRCLE ( 'NONE', #37, 0.6500000000000000222 ) ;
#129 = CALENDAR_DATE ( 2021, 8, 10 ) ;
#130 = ADVANCED_FACE ( 'NONE', ( #100, #134 ), #80, .T. ) ;
#131 = PLANE ( 'NONE',  #124 ) ;
#132 = FACE_OUTER_BOUND ( 'NONE', #114, .T. ) ;
#133 = AXIS2_PLACEMENT_3D ( 'NONE', #43, #74, #187 ) ;
#134 = FACE_OUTER_BOUND ( 'NONE', #151, .T. ) ;
#135 = APPROVAL ( #177, 'UNSPECIFIED' ) ;
#136 = FACE_OUTER_BOUND ( 'NONE', #93, .T. ) ;
#137 = CARTESIAN_POINT ( 'NONE',  ( 8.667973070662126807E-16, -3.040315684344762549E-17, 0.2482606157515414858 ) ) ;
#138 = DIRECTION ( 'NONE',  ( 0.0000000000000000000, 1.000000000000000000, 0.0000000000000000000 ) ) ;
#139 = ADVANCED_FACE ( 'NONE', ( #45 ), #188, .T. ) ;
#140 = PERSON_AND_ORGANIZATION_ROLE ( 'classification_officer' ) ;
#141 = AXIS2_PLACEMENT_3D ( 'NONE', #156, #65, #8 ) ;
#142 = EDGE_CURVE ( 'NONE', #26, #26, #128, .T. ) ;
#143 = DATE_TIME_ROLE ( 'classification_date' ) ;
#144 = MECHANICAL_CONTEXT ( 'NONE', #3, 'mechanical' ) ;
#145 = VERTEX_POINT ( 'NONE', #36 ) ;
#146 = EDGE_CURVE ( 'NONE', #170, #170, #66, .T. ) ;
#147 = DATE_AND_TIME ( #129, #149 ) ;
#148 = ORIENTED_EDGE ( 'NONE', *, *, #115, .F. ) ;
#149 = LOCAL_TIME ( 10, 13, 3.000000000000000000, #162 ) ;
#150 = EDGE_LOOP ( 'NONE', ( #21 ) ) ;
#151 = EDGE_LOOP ( 'NONE', ( #57 ) ) ;
#152 = EDGE_LOOP ( 'NONE', ( #39 ) ) ;
#153 = APPROVAL_PERSON_ORGANIZATION ( #207, #223, #85 ) ;
#154 = VERTEX_POINT ( 'NONE', #216 ) ;
#155 = EDGE_CURVE ( 'NONE', #154, #154, #119, .T. ) ;
#156 = CARTESIAN_POINT ( 'NONE',  ( 1.047444401652940007E-13, 4.874219293650981803E-33, 30.00000000000000000 ) ) ;
#157 = DIRECTION ( 'NONE',  ( -3.491481338843133355E-15, 1.224646799147353207E-16, -1.000000000000000000 ) ) ;
#158 = DIRECTION ( 'NONE',  ( 4.275831445896958607E-31, 1.000000000000000000, 1.224646799147353207E-16 ) ) ;
#159 = AXIS2_PLACEMENT_3D ( 'NONE', #59, #157, #158 ) ;
#160 = DATE_AND_TIME ( #18, #123 ) ;
#161 = SECURITY_CLASSIFICATION_LEVEL ( 'unclassified' ) ;
#162 = COORDINATED_UNIVERSAL_TIME_OFFSET ( 1, 0, .AHEAD. ) ;
#163 = COORDINATED_UNIVERSAL_TIME_OFFSET ( 1, 0, .AHEAD. ) ;
#164 = CC_DESIGN_APPROVAL ( #49, ( #211 ) ) ;
#165 = CLOSED_SHELL ( 'NONE', ( #139, #222, #44 ) ) ;
#166 = DIRECTION ( 'NONE',  ( 3.491481338843133355E-15, -1.224646799147353207E-16, 1.000000000000000000 ) ) ;
#167 = ORIENTED_EDGE ( 'NONE', *, *, #115, .T. ) ;
#168 = CIRCLE ( 'NONE', #34, 0.7499999999999973355 ) ;
#169 = ORIENTED_EDGE ( 'NONE', *, *, #155, .T. ) ;
#170 = VERTEX_POINT ( 'NONE', #5 ) ;
#171 = CARTESIAN_POINT ( 'NONE',  ( 1.043952920314096810E-13, -3.661693929450586610E-15, 29.89999999999999858 ) ) ;
#172 = DIRECTION ( 'NONE',  ( -3.491481338843133355E-15, 1.224646799147353207E-16, -1.000000000000000000 ) ) ;
#173 = DIRECTION ( 'NONE',  ( 0.0000000000000000000, -1.000000000000000000, 0.0000000000000000000 ) ) ;
#174 = CARTESIAN_POINT ( 'NONE',  ( 8.667973070662128779E-16, 0.4299999999999991607, 0.2482606157515415413 ) ) ;
#175 = ADVANCED_BREP_SHAPE_REPRESENTATION ( '957996', ( #106, #101, #108 ), #79 ) ;
#176 = APPROVAL_DATE_TIME ( #160, #49 ) ;
#177 = APPROVAL_STATUS ( 'not_yet_approved' ) ;
#178 = APPROVAL_ROLE ( '' ) ;
#179 = PERSON_AND_ORGANIZATION ( #81, #89 ) ;
#180 = ORIENTED_EDGE ( 'NONE', *, *, #98, .T. ) ;
#181 = AXIS2_PLACEMENT_3D ( 'NONE', #116, #99, #121 ) ;
#182 = UNCERTAINTY_MEASURE_WITH_UNIT (LENGTH_MEASURE( 1.000000000000000082E-05 ), #126, 'distance_accuracy_value', 'NONE');
#183 = DIRECTION ( 'NONE',  ( 0.0000000000000000000, 1.000000000000000000, 0.0000000000000000000 ) ) ;
#184 = DIRECTION ( 'NONE',  ( 0.0000000000000000000, 1.000000000000000000, 0.0000000000000000000 ) ) ;
#185 = FACE_OUTER_BOUND ( 'NONE', #53, .T. ) ;
#186 = CARTESIAN_POINT ( 'NONE',  ( 1.047444401652940007E-13, -3.673940397442059178E-15, 30.00000000000000000 ) ) ;
#187 = DIRECTION ( 'NONE',  ( -4.275831445896958607E-31, -1.000000000000000000, -1.224646799147353207E-16 ) ) ;
#188 = CONICAL_SURFACE ( 'NONE', #181, 0.4299999999999992162, 1.047197551196592746 ) ;
#189 = PERSON_AND_ORGANIZATION ( #81, #89 ) ;
#190 = CIRCLE ( 'NONE', #90, 0.4299999999999992162 ) ;
#191 = COORDINATED_UNIVERSAL_TIME_OFFSET ( 1, 0, .AHEAD. ) ;
#192 = CALENDAR_DATE ( 2021, 8, 10 ) ;
#193 = CIRCLE ( 'NONE', #94, 0.7500000000000000000 ) ;
#194 = CARTESIAN_POINT ( 'NONE',  ( 0.0000000000000000000, 0.0000000000000000000, 0.0000000000000000000 ) ) ;
#195 = EDGE_LOOP ( 'NONE', ( #23 ) ) ;
#196 = SHAPE_DEFINITION_REPRESENTATION ( #22, #175 ) ;
#197 = EDGE_LOOP ( 'NONE', ( #148 ) ) ;
#198 = DIRECTION ( 'NONE',  ( -4.275831445896958607E-31, -1.000000000000000000, -1.224646799147353207E-16 ) ) ;
#199 = DIRECTION ( 'NONE',  ( 3.491481338843133355E-15, -1.224646799147353207E-16, 1.000000000000000000 ) ) ;
#200 = VERTEX_POINT ( 'NONE', #78 ) ;
#201 = CC_DESIGN_PERSON_AND_ORGANIZATION_ASSIGNMENT ( #82, #35, ( #211 ) ) ;
#202 = CARTESIAN_POINT ( 'NONE',  ( 0.0000000000000000000, 0.0000000000000000000, 0.0000000000000000000 ) ) ;
#203 = AXIS2_PLACEMENT_3D ( 'NONE', #205, #42, #138 ) ;
#204 = CARTESIAN_POINT ( 'NONE',  ( 2.478951750578624367E-14, -8.694992273946207746E-16, 7.099999999999999645 ) ) ;
#205 = CARTESIAN_POINT ( 'NONE',  ( 1.047444401652940007E-13, -3.673940397442059178E-15, 30.00000000000000000 ) ) ;
#206 = CLOSED_SHELL ( 'NONE', ( #4, #112, #130, #104, #86 ) ) ;
#207 = PERSON_AND_ORGANIZATION ( #81, #89 ) ;
#208 = LOCAL_TIME ( 10, 13, 3.000000000000000000, #191 ) ;
#209 = FACE_OUTER_BOUND ( 'NONE', #195, .T. ) ;
#210 = EDGE_CURVE ( 'NONE', #145, #145, #193, .T. ) ;
#211 = PRODUCT_DEFINITION_FORMATION_WITH_SPECIFIED_SOURCE ( 'ANY', '', #213, .NOT_KNOWN. ) ;
#212 = APPROVAL_DATE_TIME ( #147, #223 ) ;
#213 = PRODUCT ( '957996', '957996', '', ( #144 ) ) ;
#214 = DIRECTION ( 'NONE',  ( -3.491481338843133355E-15, 1.224646799147353207E-16, -1.000000000000000000 ) ) ;
#215 = APPROVAL_PERSON_ORGANIZATION ( #189, #49, #178 ) ;
#216 = CARTESIAN_POINT ( 'NONE',  ( 2.478951750578624367E-14, 0.4299999999999998268, 7.099999999999999645 ) ) ;
#217 = FACE_OUTER_BOUND ( 'NONE', #152, .T. ) ;
#218 = FACE_BOUND ( 'NONE', #113, .T. ) ;
#219 = CC_DESIGN_SECURITY_CLASSIFICATION ( #19, ( #211 ) ) ;
#220 = CARTESIAN_POINT ( 'NONE',  ( 1.047444401652940007E-13, 0.6499999999999962474, 30.00000000000000000 ) ) ;
#221 = DIRECTION ( 'NONE',  ( 0.0000000000000000000, 0.0000000000000000000, 1.000000000000000000 ) ) ;
#222 = ADVANCED_FACE ( 'NONE', ( #217, #185 ), #102, .T. ) ;
#223 = APPROVAL ( #107, 'UNSPECIFIED' ) ;
ENDSEC;
END-ISO-10303-21;
