ISO-10303-21;
HEADER;
FILE_DESCRIPTION (( 'STEP AP203' ),
    '1' );
FILE_NAME ('957995.step',
    '2021-10-08T05:54:14',
    ( '' ),
    ( '' ),
    'SwSTEP 2.0',
    'SolidWorks 2019',
    '' );
FILE_SCHEMA (( 'CONFIG_CONTROL_DESIGN' ));
ENDSEC;

DATA;
#1 = DIRECTION ( 'NONE',  ( -3.491481338843133355E-15, 1.224646799147353207E-16, -1.000000000000000000 ) ) ;
#2 = PLANE ( 'NONE',  #216 ) ;
#3 = CIRCLE ( 'NONE', #150, 0.4300000000000007150 ) ;
#4 = ORIENTED_EDGE ( 'NONE', *, *, #101, .F. ) ;
#5 = FACE_BOUND ( 'NONE', #26, .T. ) ;
#6 = CC_DESIGN_PERSON_AND_ORGANIZATION_ASSIGNMENT ( #219, #67, ( #66 ) ) ;
#7 = PLANE ( 'NONE',  #63 ) ;
#8 = PERSON_AND_ORGANIZATION_ROLE ( 'design_owner' ) ;
#9 = DIRECTION ( 'NONE',  ( 0.0000000000000000000, 1.000000000000000000, 0.0000000000000000000 ) ) ;
#10 = DIRECTION ( 'NONE',  ( -4.275831445896958607E-31, -1.000000000000000000, -1.224646799147353207E-16 ) ) ;
#11 = CARTESIAN_POINT ( 'NONE',  ( 2.478951750578624367E-14, 0.4299999999999998268, 7.099999999999999645 ) ) ;
#12 = CARTESIAN_POINT ( 'NONE',  ( 2.672469288900382750E-14, 0.7499999999999963363, 7.654256258422043047 ) ) ;
#13 = PERSON_AND_ORGANIZATION ( #81, #166 ) ;
#14 = DATE_TIME_ROLE ( 'creation_date' ) ;
#15 = CONICAL_SURFACE ( 'NONE', #47, 0.6500000000000000222, 0.7853981633974510546 ) ;
#16 = ADVANCED_FACE ( 'NONE', ( #41 ), #39, .T. ) ;
#17 = APPROVAL_DATE_TIME ( #218, #74 ) ;
#18 = LOCAL_TIME ( 7, 54, 14.00000000000000000, #197 ) ;
#19 = DESIGN_CONTEXT ( 'detailed design', #222, 'design' ) ;
#20 = CC_DESIGN_DATE_AND_TIME_ASSIGNMENT ( #34, #204, ( #183 ) ) ;
#21 = ORIENTED_EDGE ( 'NONE', *, *, #112, .T. ) ;
#22 = EDGE_LOOP ( 'NONE', ( #4 ) ) ;
#23 = AXIS2_PLACEMENT_3D ( 'NONE', #134, #200, #118 ) ;
#24 = LOCAL_TIME ( 7, 54, 14.00000000000000000, #102 ) ;
#25 = DIRECTION ( 'NONE',  ( -3.491481338843133355E-15, 1.224646799147353207E-16, -1.000000000000000000 ) ) ;
#26 = EDGE_LOOP ( 'NONE', ( #92 ) ) ;
#27 =( LENGTH_UNIT ( ) NAMED_UNIT ( * ) SI_UNIT ( .MILLI., .METRE. ) );
#28 = CARTESIAN_POINT ( 'NONE',  ( 2.478951750578624367E-14, -8.694992273946207746E-16, 7.099999999999999645 ) ) ;
#29 = FACE_OUTER_BOUND ( 'NONE', #22, .T. ) ;
#30 = FACE_BOUND ( 'NONE', #139, .T. ) ;
#31 = AXIS2_PLACEMENT_3D ( 'NONE', #48, #32, #9 ) ;
#32 = DIRECTION ( 'NONE',  ( -3.491481338843133355E-15, 1.224646799147353207E-16, -1.000000000000000000 ) ) ;
#33 = CC_DESIGN_PERSON_AND_ORGANIZATION_ASSIGNMENT ( #65, #168, ( #183 ) ) ;
#34 = DATE_AND_TIME ( #152, #217 ) ;
#35 = APPROVAL_STATUS ( 'not_yet_approved' ) ;
#36 = SHAPE_DEFINITION_REPRESENTATION ( #192, #160 ) ;
#37 = PERSON_AND_ORGANIZATION ( #81, #166 ) ;
#38 = EDGE_LOOP ( 'NONE', ( #175 ) ) ;
#39 = CONICAL_SURFACE ( 'NONE', #73, 0.4299999999999992717, 1.047197551196592746 ) ;
#40 = DIRECTION ( 'NONE',  ( 0.0000000000000000000, 1.000000000000000000, 0.0000000000000000000 ) ) ;
#41 = FACE_OUTER_BOUND ( 'NONE', #46, .T. ) ;
#42 = DIRECTION ( 'NONE',  ( -3.491481338843133355E-15, 1.224646799147353207E-16, -1.000000000000000000 ) ) ;
#43 = LOCAL_TIME ( 7, 54, 14.00000000000000000, #208 ) ;
#44 =( GEOMETRIC_REPRESENTATION_CONTEXT ( 3 ) GLOBAL_UNCERTAINTY_ASSIGNED_CONTEXT ( ( #105 ) ) GLOBAL_UNIT_ASSIGNED_CONTEXT ( ( #27, #119, #146 ) ) REPRESENTATION_CONTEXT ( 'NONE', 'WORKASPACE' ) );
#45 = DIRECTION ( 'NONE',  ( 0.0000000000000000000, -1.000000000000000000, 0.0000000000000000000 ) ) ;
#46 = EDGE_LOOP ( 'NONE', ( #21 ) ) ;
#47 = AXIS2_PLACEMENT_3D ( 'NONE', #79, #80, #198 ) ;
#48 = CARTESIAN_POINT ( 'NONE',  ( 2.672469288900382750E-14, -9.373760426730151248E-16, 7.654256258422043047 ) ) ;
#49 = APPLICATION_CONTEXT ( 'configuration controlled 3d designs of mechanical parts and assemblies' ) ;
#50 = ADVANCED_FACE ( 'NONE', ( #173, #191 ), #140, .T. ) ;
#51 = CARTESIAN_POINT ( 'NONE',  ( 2.478951750578624367E-14, 3.224483532722986604E-33, 7.099999999999999645 ) ) ;
#52 = APPROVAL_DATE_TIME ( #220, #85 ) ;
#53 = ADVANCED_FACE ( 'NONE', ( #76, #89 ), #155, .T. ) ;
#54 = EDGE_LOOP ( 'NONE', ( #104 ) ) ;
#55 = CIRCLE ( 'NONE', #138, 0.4299999999999992717 ) ;
#56 = ORIENTED_EDGE ( 'NONE', *, *, #149, .T. ) ;
#57 = DIRECTION ( 'NONE',  ( 4.275831445896959482E-31, 1.000000000000000000, 1.224646799147353454E-16 ) ) ;
#58 = CARTESIAN_POINT ( 'NONE',  ( 1.043952920314096810E-13, -3.661693929450586610E-15, 29.89999999999999858 ) ) ;
#59 = CIRCLE ( 'NONE', #31, 0.7499999999999973355 ) ;
#60 = DIRECTION ( 'NONE',  ( 3.491481338843133355E-15, -1.224646799147353207E-16, 1.000000000000000000 ) ) ;
#61 = MANIFOLD_SOLID_BREP ( 'Corps-Déplacer/Copier1[1]', #169 ) ;
#62 = VERTEX_POINT ( 'NONE', #177 ) ;
#63 = AXIS2_PLACEMENT_3D ( 'NONE', #142, #214, #129 ) ;
#64 = DIRECTION ( 'NONE',  ( 1.000000000000000000, 0.0000000000000000000, 0.0000000000000000000 ) ) ;
#65 = PERSON_AND_ORGANIZATION ( #81, #166 ) ;
#66 = PRODUCT_DEFINITION_FORMATION_WITH_SPECIFIED_SOURCE ( 'ANY', '', #96, .NOT_KNOWN. ) ;
#67 = PERSON_AND_ORGANIZATION_ROLE ( 'creator' ) ;
#68 = CALENDAR_DATE ( 2021, 8, 10 ) ;
#69 = APPROVAL_PERSON_ORGANIZATION ( #98, #74, #143 ) ;
#70 = CC_DESIGN_PERSON_AND_ORGANIZATION_ASSIGNMENT ( #120, #184, ( #165 ) ) ;
#71 = EDGE_LOOP ( 'NONE', ( #154 ) ) ;
#72 = DIRECTION ( 'NONE',  ( -3.491481338843133355E-15, 1.224646799147353207E-16, -1.000000000000000000 ) ) ;
#73 = AXIS2_PLACEMENT_3D ( 'NONE', #190, #126, #141 ) ;
#74 = APPROVAL ( #148, 'UNSPECIFIED' ) ;
#75 = ORIENTED_EDGE ( 'NONE', *, *, #107, .T. ) ;
#76 = FACE_OUTER_BOUND ( 'NONE', #77, .T. ) ;
#77 = EDGE_LOOP ( 'NONE', ( #88 ) ) ;
#78 = PERSON_AND_ORGANIZATION ( #81, #166 ) ;
#79 = CARTESIAN_POINT ( 'NONE',  ( 1.047444401652940007E-13, -3.673940397442059178E-15, 30.00000000000000000 ) ) ;
#80 = DIRECTION ( 'NONE',  ( -3.491481338843133355E-15, 1.224646799147353207E-16, -1.000000000000000000 ) ) ;
#81 = PERSON ( 'UNSPECIFIED', 'UNSPECIFIED', 'UNSPECIFIED', ('UNSPECIFIED'), ('UNSPECIFIED'), ('UNSPECIFIED') ) ;
#82 = AXIS2_PLACEMENT_3D ( 'NONE', #28, #95, #201 ) ;
#83 = APPROVAL_STATUS ( 'not_yet_approved' ) ;
#84 = ADVANCED_FACE ( 'NONE', ( #109 ), #2, .F. ) ;
#85 = APPROVAL ( #35, 'UNSPECIFIED' ) ;
#86 = PERSON_AND_ORGANIZATION_ROLE ( 'design_supplier' ) ;
#87 = CLOSED_SHELL ( 'NONE', ( #16, #53, #135 ) ) ;
#88 = ORIENTED_EDGE ( 'NONE', *, *, #112, .F. ) ;
#89 = FACE_OUTER_BOUND ( 'NONE', #157, .T. ) ;
#90 = CARTESIAN_POINT ( 'NONE',  ( 2.478951750578624367E-14, -8.694992273946207746E-16, 7.099999999999999645 ) ) ;
#91 = AXIS2_PLACEMENT_3D ( 'NONE', #194, #113, #128 ) ;
#92 = ORIENTED_EDGE ( 'NONE', *, *, #145, .F. ) ;
#93 = CC_DESIGN_PERSON_AND_ORGANIZATION_ASSIGNMENT ( #78, #8, ( #96 ) ) ;
#94 = DIRECTION ( 'NONE',  ( 0.0000000000000000000, 0.0000000000000000000, 1.000000000000000000 ) ) ;
#95 = DIRECTION ( 'NONE',  ( -3.491481338843133355E-15, 1.224646799147353207E-16, -1.000000000000000000 ) ) ;
#96 = PRODUCT ( '957995', '957995', '', ( #132 ) ) ;
#97 = PLANE ( 'NONE',  #182 ) ;
#98 = PERSON_AND_ORGANIZATION ( #81, #166 ) ;
#99 = DIRECTION ( 'NONE',  ( 3.491481338843133355E-15, -1.224646799147353207E-16, 1.000000000000000000 ) ) ;
#100 = CALENDAR_DATE ( 2021, 8, 10 ) ;
#101 = EDGE_CURVE ( 'NONE', #62, #62, #103, .T. ) ;
#102 = COORDINATED_UNIVERSAL_TIME_OFFSET ( 1, 0, .AHEAD. ) ;
#103 = CIRCLE ( 'NONE', #123, 0.7499999999999998890 ) ;
#104 = ORIENTED_EDGE ( 'NONE', *, *, #170, .F. ) ;
#105 = UNCERTAINTY_MEASURE_WITH_UNIT (LENGTH_MEASURE( 1.000000000000000082E-05 ), #27, 'distance_accuracy_value', 'NONE');
#106 = DIRECTION ( 'NONE',  ( 4.275831445896958607E-31, 1.000000000000000000, 1.224646799147353207E-16 ) ) ;
#107 = EDGE_CURVE ( 'NONE', #215, #215, #3, .T. ) ;
#108 = CARTESIAN_POINT ( 'NONE',  ( 0.0000000000000000000, 0.0000000000000000000, 0.0000000000000000000 ) ) ;
#109 = FACE_OUTER_BOUND ( 'NONE', #54, .T. ) ;
#110 = CC_DESIGN_SECURITY_CLASSIFICATION ( #183, ( #66 ) ) ;
#111 = FACE_OUTER_BOUND ( 'NONE', #71, .T. ) ;
#112 = EDGE_CURVE ( 'NONE', #114, #114, #55, .T. ) ;
#113 = DIRECTION ( 'NONE',  ( -3.491481338843133355E-15, 1.224646799147353207E-16, -1.000000000000000000 ) ) ;
#114 = VERTEX_POINT ( 'NONE', #181 ) ;
#115 = CIRCLE ( 'NONE', #23, 0.6500000000000000222 ) ;
#116 = VERTEX_POINT ( 'NONE', #162 ) ;
#117 = APPLICATION_PROTOCOL_DEFINITION ( 'international standard', 'config_control_design', 1994, #222 ) ;
#118 = DIRECTION ( 'NONE',  ( 0.0000000000000000000, 1.000000000000000000, 0.0000000000000000000 ) ) ;
#119 =( NAMED_UNIT ( * ) PLANE_ANGLE_UNIT ( ) SI_UNIT ( $, .RADIAN. ) );
#120 = PERSON_AND_ORGANIZATION ( #81, #166 ) ;
#121 = APPROVAL_ROLE ( '' ) ;
#122 = AXIS2_PLACEMENT_3D ( 'NONE', #133, #94, #64 ) ;
#123 = AXIS2_PLACEMENT_3D ( 'NONE', #58, #171, #40 ) ;
#124 = ORIENTED_EDGE ( 'NONE', *, *, #145, .T. ) ;
#125 = ORIENTED_EDGE ( 'NONE', *, *, #170, .T. ) ;
#126 = DIRECTION ( 'NONE',  ( 3.491481338843133355E-15, -1.224646799147353207E-16, 1.000000000000000000 ) ) ;
#127 = ADVANCED_FACE ( 'NONE', ( #5, #209 ), #156, .T. ) ;
#128 = DIRECTION ( 'NONE',  ( 4.275831445896958607E-31, 1.000000000000000000, 1.224646799147353207E-16 ) ) ;
#129 = DIRECTION ( 'NONE',  ( -4.275831445896958607E-31, -1.000000000000000000, -1.224646799147353207E-16 ) ) ;
#130 = APPLICATION_PROTOCOL_DEFINITION ( 'international standard', 'config_control_design', 1994, #49 ) ;
#131 = VERTEX_POINT ( 'NONE', #179 ) ;
#132 = MECHANICAL_CONTEXT ( 'NONE', #49, 'mechanical' ) ;
#133 = CARTESIAN_POINT ( 'NONE',  ( 0.0000000000000000000, 0.0000000000000000000, 0.0000000000000000000 ) ) ;
#134 = CARTESIAN_POINT ( 'NONE',  ( 1.047444401652940007E-13, -3.673940397442059178E-15, 30.00000000000000000 ) ) ;
#135 = ADVANCED_FACE ( 'NONE', ( #111 ), #7, .T. ) ;
#136 = APPROVAL_DATE_TIME ( #207, #213 ) ;
#137 = DATE_AND_TIME ( #100, #43 ) ;
#138 = AXIS2_PLACEMENT_3D ( 'NONE', #158, #72, #159 ) ;
#139 = EDGE_LOOP ( 'NONE', ( #125 ) ) ;
#140 = CYLINDRICAL_SURFACE ( 'NONE', #199, 0.7499999999999985567 ) ;
#141 = DIRECTION ( 'NONE',  ( -4.478906847412183592E-31, -1.000000000000000000, -1.260700200564542063E-16 ) ) ;
#142 = CARTESIAN_POINT ( 'NONE',  ( 2.478951750578624367E-14, 3.224483532722986604E-33, 7.099999999999999645 ) ) ;
#143 = APPROVAL_ROLE ( '' ) ;
#144 = FACE_OUTER_BOUND ( 'NONE', #189, .T. ) ;
#145 = EDGE_CURVE ( 'NONE', #116, #116, #178, .T. ) ;
#146 =( NAMED_UNIT ( * ) SI_UNIT ( $, .STERADIAN. ) SOLID_ANGLE_UNIT ( ) );
#147 = CC_DESIGN_APPROVAL ( #85, ( #66 ) ) ;
#148 = APPROVAL_STATUS ( 'not_yet_approved' ) ;
#149 = EDGE_CURVE ( 'NONE', #167, #167, #59, .T. ) ;
#150 = AXIS2_PLACEMENT_3D ( 'NONE', #90, #25, #176 ) ;
#151 = PERSON_AND_ORGANIZATION ( #81, #166 ) ;
#152 = CALENDAR_DATE ( 2021, 8, 10 ) ;
#153 = AXIS2_PLACEMENT_3D ( 'NONE', #212, #60, #45 ) ;
#154 = ORIENTED_EDGE ( 'NONE', *, *, #107, .F. ) ;
#155 = CYLINDRICAL_SURFACE ( 'NONE', #91, 0.4299999999999999933 ) ;
#156 = CONICAL_SURFACE ( 'NONE', #153, 0.7499999999999973355, 0.5235987755982919323 ) ;
#157 = EDGE_LOOP ( 'NONE', ( #75 ) ) ;
#158 = CARTESIAN_POINT ( 'NONE',  ( 8.667973070662126807E-16, -3.040315684344762549E-17, 0.2482606157515414858 ) ) ;
#159 = DIRECTION ( 'NONE',  ( 4.478906847412183592E-31, 1.000000000000000000, 1.260700200564542063E-16 ) ) ;
#160 = ADVANCED_BREP_SHAPE_REPRESENTATION ( '957995', ( #61, #210, #122 ), #44 ) ;
#161 = APPROVAL_PERSON_ORGANIZATION ( #13, #213, #121 ) ;
#162 = CARTESIAN_POINT ( 'NONE',  ( 2.478951750578624367E-14, 0.4299999999999998268, 7.099999999999999645 ) ) ;
#163 = CALENDAR_DATE ( 2021, 8, 10 ) ;
#164 = LOCAL_TIME ( 7, 54, 14.00000000000000000, #221 ) ;
#165 = PRODUCT_DEFINITION ( 'UNKNOWN', '', #66, #19 ) ;
#166 = ORGANIZATION ( 'UNSPECIFIED', 'UNSPECIFIED', '' ) ;
#167 = VERTEX_POINT ( 'NONE', #12 ) ;
#168 = PERSON_AND_ORGANIZATION_ROLE ( 'classification_officer' ) ;
#169 = CLOSED_SHELL ( 'NONE', ( #206, #127, #50, #202, #84 ) ) ;
#170 = EDGE_CURVE ( 'NONE', #131, #131, #115, .T. ) ;
#171 = DIRECTION ( 'NONE',  ( -3.491481338843133355E-15, 1.224646799147353207E-16, -1.000000000000000000 ) ) ;
#172 = CC_DESIGN_DATE_AND_TIME_ASSIGNMENT ( #137, #14, ( #165 ) ) ;
#173 = FACE_OUTER_BOUND ( 'NONE', #211, .T. ) ;
#174 = CARTESIAN_POINT ( 'NONE',  ( 1.047444401652940007E-13, 4.874219293650981803E-33, 30.00000000000000000 ) ) ;
#175 = ORIENTED_EDGE ( 'NONE', *, *, #101, .T. ) ;
#176 = DIRECTION ( 'NONE',  ( 0.0000000000000000000, 1.000000000000000000, 0.0000000000000000000 ) ) ;
#177 = CARTESIAN_POINT ( 'NONE',  ( 1.043952920314096810E-13, 0.7499999999999962252, 29.89999999999999858 ) ) ;
#178 = CIRCLE ( 'NONE', #82, 0.4300000000000007150 ) ;
#179 = CARTESIAN_POINT ( 'NONE',  ( 1.047444401652940007E-13, 0.6499999999999962474, 30.00000000000000000 ) ) ;
#180 = CC_DESIGN_PERSON_AND_ORGANIZATION_ASSIGNMENT ( #151, #86, ( #66 ) ) ;
#181 = CARTESIAN_POINT ( 'NONE',  ( 8.667973070662128779E-16, 0.4299999999999992162, 0.2482606157515415413 ) ) ;
#182 = AXIS2_PLACEMENT_3D ( 'NONE', #51, #99, #10 ) ;
#183 = SECURITY_CLASSIFICATION ( '', '', #223 ) ;
#184 = PERSON_AND_ORGANIZATION_ROLE ( 'creator' ) ;
#185 = COORDINATED_UNIVERSAL_TIME_OFFSET ( 1, 0, .AHEAD. ) ;
#186 = APPROVAL_PERSON_ORGANIZATION ( #37, #85, #203 ) ;
#187 = CALENDAR_DATE ( 2021, 8, 10 ) ;
#188 = ORIENTED_EDGE ( 'NONE', *, *, #149, .F. ) ;
#189 = EDGE_LOOP ( 'NONE', ( #124 ) ) ;
#190 = CARTESIAN_POINT ( 'NONE',  ( 8.667973070662126807E-16, -3.040315684344762549E-17, 0.2482606157515414858 ) ) ;
#191 = FACE_OUTER_BOUND ( 'NONE', #38, .T. ) ;
#192 = PRODUCT_DEFINITION_SHAPE ( 'NONE', 'NONE',  #165 ) ;
#193 = CC_DESIGN_APPROVAL ( #213, ( #183 ) ) ;
#194 = CARTESIAN_POINT ( 'NONE',  ( 0.0000000000000000000, 0.0000000000000000000, 0.0000000000000000000 ) ) ;
#195 = EDGE_LOOP ( 'NONE', ( #56 ) ) ;
#196 = PRODUCT_RELATED_PRODUCT_CATEGORY ( 'detail', '', ( #96 ) ) ;
#197 = COORDINATED_UNIVERSAL_TIME_OFFSET ( 1, 0, .AHEAD. ) ;
#198 = DIRECTION ( 'NONE',  ( 0.0000000000000000000, 1.000000000000000000, 0.0000000000000000000 ) ) ;
#199 = AXIS2_PLACEMENT_3D ( 'NONE', #108, #42, #57 ) ;
#200 = DIRECTION ( 'NONE',  ( -3.491481338843133355E-15, 1.224646799147353207E-16, -1.000000000000000000 ) ) ;
#201 = DIRECTION ( 'NONE',  ( 0.0000000000000000000, 1.000000000000000000, 0.0000000000000000000 ) ) ;
#202 = ADVANCED_FACE ( 'NONE', ( #29, #30 ), #15, .T. ) ;
#203 = APPROVAL_ROLE ( '' ) ;
#204 = DATE_TIME_ROLE ( 'classification_date' ) ;
#205 = CC_DESIGN_APPROVAL ( #74, ( #165 ) ) ;
#206 = ADVANCED_FACE ( 'NONE', ( #144 ), #97, .F. ) ;
#207 = DATE_AND_TIME ( #187, #164 ) ;
#208 = COORDINATED_UNIVERSAL_TIME_OFFSET ( 1, 0, .AHEAD. ) ;
#209 = FACE_OUTER_BOUND ( 'NONE', #195, .T. ) ;
#210 = MANIFOLD_SOLID_BREP ( 'Corps-Déplacer/Copier1[2]', #87 ) ;
#211 = EDGE_LOOP ( 'NONE', ( #188 ) ) ;
#212 = CARTESIAN_POINT ( 'NONE',  ( 2.672469288900382750E-14, -9.373760426730151248E-16, 7.654256258422043047 ) ) ;
#213 = APPROVAL ( #83, 'UNSPECIFIED' ) ;
#214 = DIRECTION ( 'NONE',  ( 3.491481338843133355E-15, -1.224646799147353207E-16, 1.000000000000000000 ) ) ;
#215 = VERTEX_POINT ( 'NONE', #11 ) ;
#216 = AXIS2_PLACEMENT_3D ( 'NONE', #174, #1, #106 ) ;
#217 = LOCAL_TIME ( 7, 54, 14.00000000000000000, #185 ) ;
#218 = DATE_AND_TIME ( #163, #18 ) ;
#219 = PERSON_AND_ORGANIZATION ( #81, #166 ) ;
#220 = DATE_AND_TIME ( #68, #24 ) ;
#221 = COORDINATED_UNIVERSAL_TIME_OFFSET ( 1, 0, .AHEAD. ) ;
#222 = APPLICATION_CONTEXT ( 'configuration controlled 3d designs of mechanical parts and assemblies' ) ;
#223 = SECURITY_CLASSIFICATION_LEVEL ( 'unclassified' ) ;
ENDSEC;
END-ISO-10303-21;
