ISO-10303-21;
HEADER;
FILE_DESCRIPTION (( 'STEP AP203' ),
    '1' );
FILE_NAME ('957994.step',
    '2021-10-08T08:13:02',
    ( '' ),
    ( '' ),
    'SwSTEP 2.0',
    'SolidWorks 2019',
    '' );
FILE_SCHEMA (( 'CONFIG_CONTROL_DESIGN' ));
ENDSEC;

DATA;
#1 = PERSON_AND_ORGANIZATION ( #167, #214 ) ;
#2 = PERSON_AND_ORGANIZATION_ROLE ( 'creator' ) ;
#3 =( GEOMETRIC_REPRESENTATION_CONTEXT ( 3 ) GLOBAL_UNCERTAINTY_ASSIGNED_CONTEXT ( ( #70 ) ) GLOBAL_UNIT_ASSIGNED_CONTEXT ( ( #124, #205, #177 ) ) REPRESENTATION_CONTEXT ( 'NONE', 'WORKASPACE' ) );
#4 = SECURITY_CLASSIFICATION_LEVEL ( 'unclassified' ) ;
#5 = AXIS2_PLACEMENT_3D ( 'NONE', #114, #223, #129 ) ;
#6 = CC_DESIGN_PERSON_AND_ORGANIZATION_ASSIGNMENT ( #139, #153, ( #9 ) ) ;
#7 = APPROVAL_ROLE ( '' ) ;
#8 = EDGE_LOOP ( 'NONE', ( #10 ) ) ;
#9 = PRODUCT_DEFINITION_FORMATION_WITH_SPECIFIED_SOURCE ( 'ANY', '', #110, .NOT_KNOWN. ) ;
#10 = ORIENTED_EDGE ( 'NONE', *, *, #195, .T. ) ;
#11 = CARTESIAN_POINT ( 'NONE',  ( 0.0000000000000000000, 0.0000000000000000000, 0.0000000000000000000 ) ) ;
#12 = PRODUCT_DEFINITION_SHAPE ( 'NONE', 'NONE',  #28 ) ;
#13 = CARTESIAN_POINT ( 'NONE',  ( 2.199633243471174329E-14, -1.031466700585815532E-31, 6.300000000000000711 ) ) ;
#14 = CC_DESIGN_DATE_AND_TIME_ASSIGNMENT ( #38, #106, ( #117 ) ) ;
#15 = DIRECTION ( 'NONE',  ( -4.275831445896958607E-31, -1.000000000000000000, -1.224646799147353207E-16 ) ) ;
#16 = DIRECTION ( 'NONE',  ( 0.0000000000000000000, 1.000000000000000000, 0.0000000000000000000 ) ) ;
#17 = APPROVAL ( #190, 'UNSPECIFIED' ) ;
#18 = CIRCLE ( 'NONE', #91, 0.6500000000000000222 ) ;
#19 = CARTESIAN_POINT ( 'NONE',  ( 8.264811532491795855E-16, -2.898905652514773292E-17, 0.2367136103677488501 ) ) ;
#20 = PERSON_AND_ORGANIZATION ( #167, #214 ) ;
#21 = DATE_AND_TIME ( #187, #105 ) ;
#22 = CARTESIAN_POINT ( 'NONE',  ( 1.043952920314096810E-13, 0.7499999999999963363, 29.89999999999999858 ) ) ;
#23 = LOCAL_TIME ( 10, 13, 2.000000000000000000, #100 ) ;
#24 = ORIENTED_EDGE ( 'NONE', *, *, #148, .T. ) ;
#25 = CIRCLE ( 'NONE', #56, 0.4100000000000000866 ) ;
#26 = EDGE_LOOP ( 'NONE', ( #43 ) ) ;
#27 = MANIFOLD_SOLID_BREP ( 'Corps-Déplacer/Copier1[2]', #131 ) ;
#28 = PRODUCT_DEFINITION ( 'UNKNOWN', '', #9, #75 ) ;
#29 = CIRCLE ( 'NONE', #168, 0.4099999999999993094 ) ;
#30 = FACE_OUTER_BOUND ( 'NONE', #88, .T. ) ;
#31 = DIRECTION ( 'NONE',  ( -4.275831445896958607E-31, -1.000000000000000000, -1.224646799147353207E-16 ) ) ;
#32 = AXIS2_PLACEMENT_3D ( 'NONE', #68, #83, #40 ) ;
#33 = CARTESIAN_POINT ( 'NONE',  ( 2.199633243471174645E-14, -7.715274834628327350E-16, 6.300000000000001599 ) ) ;
#34 = DIRECTION ( 'NONE',  ( -3.491481338843133355E-15, 1.224646799147353207E-16, -1.000000000000000000 ) ) ;
#35 = FACE_OUTER_BOUND ( 'NONE', #74, .T. ) ;
#36 = CONICAL_SURFACE ( 'NONE', #144, 0.6500000000000000222, 0.7853981633974516097 ) ;
#37 = PERSON_AND_ORGANIZATION ( #167, #214 ) ;
#38 = DATE_AND_TIME ( #188, #146 ) ;
#39 = CC_DESIGN_APPROVAL ( #155, ( #117 ) ) ;
#40 = DIRECTION ( 'NONE',  ( 1.000000000000000000, 0.0000000000000000000, 0.0000000000000000000 ) ) ;
#41 = ORIENTED_EDGE ( 'NONE', *, *, #122, .T. ) ;
#42 = CARTESIAN_POINT ( 'NONE',  ( 2.199633243471174329E-14, -1.031466700585815532E-31, 6.300000000000000711 ) ) ;
#43 = ORIENTED_EDGE ( 'NONE', *, *, #137, .T. ) ;
#44 = AXIS2_PLACEMENT_3D ( 'NONE', #19, #198, #135 ) ;
#45 = CC_DESIGN_PERSON_AND_ORGANIZATION_ASSIGNMENT ( #37, #102, ( #110 ) ) ;
#46 = DIRECTION ( 'NONE',  ( -3.491481338843133355E-15, 1.224646799147353207E-16, -1.000000000000000000 ) ) ;
#47 = DATE_AND_TIME ( #63, #51 ) ;
#48 = DIRECTION ( 'NONE',  ( 0.0000000000000000000, 1.000000000000000000, 0.0000000000000000000 ) ) ;
#49 = PERSON_AND_ORGANIZATION ( #167, #214 ) ;
#50 = DIRECTION ( 'NONE',  ( -3.491481338843133355E-15, 1.224646799147353207E-16, -1.000000000000000000 ) ) ;
#51 = LOCAL_TIME ( 10, 13, 2.000000000000000000, #93 ) ;
#52 = DIRECTION ( 'NONE',  ( 0.0000000000000000000, 1.000000000000000000, 0.0000000000000000000 ) ) ;
#53 = ADVANCED_FACE ( 'NONE', ( #61 ), #126, .F. ) ;
#54 = CARTESIAN_POINT ( 'NONE',  ( 2.405245627938042099E-14, 0.7499999999999963363, 6.888897274573420937 ) ) ;
#55 = VERTEX_POINT ( 'NONE', #59 ) ;
#56 = AXIS2_PLACEMENT_3D ( 'NONE', #33, #96, #16 ) ;
#57 = APPROVAL_ROLE ( '' ) ;
#58 = EDGE_LOOP ( 'NONE', ( #192 ) ) ;
#59 = CARTESIAN_POINT ( 'NONE',  ( 2.199633243471174645E-14, 0.4099999999999993650, 6.300000000000001599 ) ) ;
#60 = APPROVAL_PERSON_ORGANIZATION ( #69, #90, #154 ) ;
#61 = FACE_OUTER_BOUND ( 'NONE', #8, .T. ) ;
#62 = DIRECTION ( 'NONE',  ( 4.275831445896958607E-31, 1.000000000000000000, 1.224646799147353207E-16 ) ) ;
#63 = CALENDAR_DATE ( 2021, 8, 10 ) ;
#64 = FACE_OUTER_BOUND ( 'NONE', #178, .T. ) ;
#65 = DIRECTION ( 'NONE',  ( 4.275831445896958607E-31, 1.000000000000000000, 1.224646799147353207E-16 ) ) ;
#66 = DIRECTION ( 'NONE',  ( -3.491481338843133355E-15, 1.224646799147353207E-16, -1.000000000000000000 ) ) ;
#67 = CC_DESIGN_PERSON_AND_ORGANIZATION_ASSIGNMENT ( #1, #86, ( #9 ) ) ;
#68 = CARTESIAN_POINT ( 'NONE',  ( 0.0000000000000000000, 0.0000000000000000000, 0.0000000000000000000 ) ) ;
#69 = PERSON_AND_ORGANIZATION ( #167, #214 ) ;
#70 = UNCERTAINTY_MEASURE_WITH_UNIT (LENGTH_MEASURE( 1.000000000000000082E-05 ), #124, 'distance_accuracy_value', 'NONE');
#71 = PERSON_AND_ORGANIZATION ( #167, #214 ) ;
#72 = AXIS2_PLACEMENT_3D ( 'NONE', #116, #66, #76 ) ;
#73 = APPROVAL_DATE_TIME ( #21, #90 ) ;
#74 = EDGE_LOOP ( 'NONE', ( #189 ) ) ;
#75 = DESIGN_CONTEXT ( 'detailed design', #191, 'design' ) ;
#76 = DIRECTION ( 'NONE',  ( 0.0000000000000000000, 1.000000000000000000, 0.0000000000000000000 ) ) ;
#77 = AXIS2_PLACEMENT_3D ( 'NONE', #202, #166, #182 ) ;
#78 = FACE_OUTER_BOUND ( 'NONE', #215, .T. ) ;
#79 = CARTESIAN_POINT ( 'NONE',  ( 1.043952920314096810E-13, -3.661693929450586610E-15, 29.89999999999999858 ) ) ;
#80 = DIRECTION ( 'NONE',  ( 0.0000000000000000000, 1.000000000000000000, 0.0000000000000000000 ) ) ;
#81 = CARTESIAN_POINT ( 'NONE',  ( 8.264811532491795855E-16, -2.898905652514773292E-17, 0.2367136103677488501 ) ) ;
#82 = ADVANCED_FACE ( 'NONE', ( #151, #222 ), #200, .T. ) ;
#83 = DIRECTION ( 'NONE',  ( 0.0000000000000000000, 0.0000000000000000000, 1.000000000000000000 ) ) ;
#84 = PERSON_AND_ORGANIZATION ( #167, #214 ) ;
#85 = CC_DESIGN_APPROVAL ( #17, ( #9 ) ) ;
#86 = PERSON_AND_ORGANIZATION_ROLE ( 'design_supplier' ) ;
#87 = EDGE_CURVE ( 'NONE', #165, #165, #18, .T. ) ;
#88 = EDGE_LOOP ( 'NONE', ( #213 ) ) ;
#89 = COORDINATED_UNIVERSAL_TIME_OFFSET ( 1, 0, .AHEAD. ) ;
#90 = APPROVAL ( #158, 'UNSPECIFIED' ) ;
#91 = AXIS2_PLACEMENT_3D ( 'NONE', #98, #219, #80 ) ;
#92 = FACE_OUTER_BOUND ( 'NONE', #196, .T. ) ;
#93 = COORDINATED_UNIVERSAL_TIME_OFFSET ( 1, 0, .AHEAD. ) ;
#94 = APPROVAL_PERSON_ORGANIZATION ( #49, #155, #7 ) ;
#95 = EDGE_CURVE ( 'NONE', #204, #204, #29, .T. ) ;
#96 = DIRECTION ( 'NONE',  ( -3.491481338843133355E-15, 1.224646799147353207E-16, -1.000000000000000000 ) ) ;
#97 = CARTESIAN_POINT ( 'NONE',  ( 2.199633243471174645E-14, -7.715274834628327350E-16, 6.300000000000001599 ) ) ;
#98 = CARTESIAN_POINT ( 'NONE',  ( 1.047444401652940007E-13, -3.673940397442059178E-15, 30.00000000000000000 ) ) ;
#99 = CIRCLE ( 'NONE', #157, 0.7500000000000000000 ) ;
#100 = COORDINATED_UNIVERSAL_TIME_OFFSET ( 1, 0, .AHEAD. ) ;
#101 = PRODUCT_RELATED_PRODUCT_CATEGORY ( 'detail', '', ( #110 ) ) ;
#102 = PERSON_AND_ORGANIZATION_ROLE ( 'design_owner' ) ;
#103 = DATE_TIME_ROLE ( 'creation_date' ) ;
#104 = ADVANCED_FACE ( 'NONE', ( #35 ), #221, .T. ) ;
#105 = LOCAL_TIME ( 10, 13, 2.000000000000000000, #141 ) ;
#106 = DATE_TIME_ROLE ( 'classification_date' ) ;
#107 = AXIS2_PLACEMENT_3D ( 'NONE', #11, #133, #65 ) ;
#108 = CLOSED_SHELL ( 'NONE', ( #53, #142, #82, #120, #218 ) ) ;
#109 = EDGE_LOOP ( 'NONE', ( #176 ) ) ;
#110 = PRODUCT ( '957994', '957994', '', ( #186 ) ) ;
#111 = DIRECTION ( 'NONE',  ( 3.491481338843133355E-15, -1.224646799147353207E-16, 1.000000000000000000 ) ) ;
#112 = EDGE_LOOP ( 'NONE', ( #125 ) ) ;
#113 = AXIS2_PLACEMENT_3D ( 'NONE', #42, #111, #31 ) ;
#114 = CARTESIAN_POINT ( 'NONE',  ( 0.0000000000000000000, 0.0000000000000000000, 0.0000000000000000000 ) ) ;
#115 = VERTEX_POINT ( 'NONE', #54 ) ;
#116 = CARTESIAN_POINT ( 'NONE',  ( 2.405245627938042099E-14, -8.436465996961264732E-16, 6.888897274573420937 ) ) ;
#117 = SECURITY_CLASSIFICATION ( '', '', #4 ) ;
#118 = DIRECTION ( 'NONE',  ( -3.491481338843133355E-15, 1.224646799147353207E-16, -1.000000000000000000 ) ) ;
#119 = FACE_BOUND ( 'NONE', #123, .T. ) ;
#120 = ADVANCED_FACE ( 'NONE', ( #78, #150 ), #36, .T. ) ;
#121 = COORDINATED_UNIVERSAL_TIME_OFFSET ( 1, 0, .AHEAD. ) ;
#122 = EDGE_CURVE ( 'NONE', #115, #115, #130, .T. ) ;
#123 = EDGE_LOOP ( 'NONE', ( #179 ) ) ;
#124 =( LENGTH_UNIT ( ) NAMED_UNIT ( * ) SI_UNIT ( .MILLI., .METRE. ) );
#125 = ORIENTED_EDGE ( 'NONE', *, *, #87, .F. ) ;
#126 = PLANE ( 'NONE',  #113 ) ;
#127 = CC_DESIGN_DATE_AND_TIME_ASSIGNMENT ( #207, #103, ( #28 ) ) ;
#128 = SHAPE_DEFINITION_REPRESENTATION ( #12, #201 ) ;
#129 = DIRECTION ( 'NONE',  ( 4.275831445896959482E-31, 1.000000000000000000, 1.224646799147353454E-16 ) ) ;
#130 = CIRCLE ( 'NONE', #72, 0.7499999999999972244 ) ;
#131 = CLOSED_SHELL ( 'NONE', ( #104, #216, #132 ) ) ;
#132 = ADVANCED_FACE ( 'NONE', ( #64 ), #138, .T. ) ;
#133 = DIRECTION ( 'NONE',  ( -3.491481338843133355E-15, 1.224646799147353207E-16, -1.000000000000000000 ) ) ;
#134 = DIRECTION ( 'NONE',  ( 3.491481338843133355E-15, -1.224646799147353207E-16, 1.000000000000000000 ) ) ;
#135 = DIRECTION ( 'NONE',  ( -4.697390108261558701E-31, -1.000000000000000000, -1.322197771323788102E-16 ) ) ;
#136 = LOCAL_TIME ( 10, 13, 2.000000000000000000, #89 ) ;
#137 = EDGE_CURVE ( 'NONE', #184, #184, #99, .T. ) ;
#138 = PLANE ( 'NONE',  #197 ) ;
#139 = PERSON_AND_ORGANIZATION ( #167, #214 ) ;
#140 = CC_DESIGN_APPROVAL ( #90, ( #28 ) ) ;
#141 = COORDINATED_UNIVERSAL_TIME_OFFSET ( 1, 0, .AHEAD. ) ;
#142 = ADVANCED_FACE ( 'NONE', ( #119, #220 ), #185, .T. ) ;
#143 = PERSON_AND_ORGANIZATION_ROLE ( 'classification_officer' ) ;
#144 = AXIS2_PLACEMENT_3D ( 'NONE', #217, #46, #48 ) ;
#145 = CALENDAR_DATE ( 2021, 8, 10 ) ;
#146 = LOCAL_TIME ( 10, 13, 2.000000000000000000, #121 ) ;
#147 = ORIENTED_EDGE ( 'NONE', *, *, #137, .F. ) ;
#148 = EDGE_CURVE ( 'NONE', #212, #212, #25, .T. ) ;
#149 = FACE_OUTER_BOUND ( 'NONE', #112, .T. ) ;
#150 = FACE_BOUND ( 'NONE', #109, .T. ) ;
#151 = FACE_OUTER_BOUND ( 'NONE', #58, .T. ) ;
#152 = PLANE ( 'NONE',  #206 ) ;
#153 = PERSON_AND_ORGANIZATION_ROLE ( 'creator' ) ;
#154 = APPROVAL_ROLE ( '' ) ;
#155 = APPROVAL ( #194, 'UNSPECIFIED' ) ;
#156 = APPROVAL_DATE_TIME ( #159, #17 ) ;
#157 = AXIS2_PLACEMENT_3D ( 'NONE', #79, #50, #180 ) ;
#158 = APPROVAL_STATUS ( 'not_yet_approved' ) ;
#159 = DATE_AND_TIME ( #169, #136 ) ;
#160 = AXIS2_PLACEMENT_3D ( 'NONE', #97, #118, #52 ) ;
#161 = CARTESIAN_POINT ( 'NONE',  ( 1.047444401652940007E-13, 0.6499999999999962474, 30.00000000000000000 ) ) ;
#162 = DIRECTION ( 'NONE',  ( -3.491481338843133355E-15, 1.224646799147353207E-16, -1.000000000000000000 ) ) ;
#163 = MANIFOLD_SOLID_BREP ( 'Corps-Déplacer/Copier1[1]', #108 ) ;
#164 = CYLINDRICAL_SURFACE ( 'NONE', #107, 0.4099999999999996425 ) ;
#165 = VERTEX_POINT ( 'NONE', #161 ) ;
#166 = DIRECTION ( 'NONE',  ( 3.491481338843133355E-15, -1.224646799147353207E-16, 1.000000000000000000 ) ) ;
#167 = PERSON ( 'UNSPECIFIED', 'UNSPECIFIED', 'UNSPECIFIED', ('UNSPECIFIED'), ('UNSPECIFIED'), ('UNSPECIFIED') ) ;
#168 = AXIS2_PLACEMENT_3D ( 'NONE', #81, #162, #181 ) ;
#169 = CALENDAR_DATE ( 2021, 8, 10 ) ;
#170 = APPLICATION_PROTOCOL_DEFINITION ( 'international standard', 'config_control_design', 1994, #191 ) ;
#171 = APPLICATION_CONTEXT ( 'configuration controlled 3d designs of mechanical parts and assemblies' ) ;
#172 = APPLICATION_PROTOCOL_DEFINITION ( 'international standard', 'config_control_design', 1994, #171 ) ;
#173 = CC_DESIGN_SECURITY_CLASSIFICATION ( #117, ( #9 ) ) ;
#174 = ORIENTED_EDGE ( 'NONE', *, *, #148, .F. ) ;
#175 = CIRCLE ( 'NONE', #160, 0.4100000000000000866 ) ;
#176 = ORIENTED_EDGE ( 'NONE', *, *, #87, .T. ) ;
#177 =( NAMED_UNIT ( * ) SI_UNIT ( $, .STERADIAN. ) SOLID_ANGLE_UNIT ( ) );
#178 = EDGE_LOOP ( 'NONE', ( #174 ) ) ;
#179 = ORIENTED_EDGE ( 'NONE', *, *, #195, .F. ) ;
#180 = DIRECTION ( 'NONE',  ( 0.0000000000000000000, 1.000000000000000000, 0.0000000000000000000 ) ) ;
#181 = DIRECTION ( 'NONE',  ( 4.697390108261558701E-31, 1.000000000000000000, 1.322197771323788102E-16 ) ) ;
#182 = DIRECTION ( 'NONE',  ( 0.0000000000000000000, -1.000000000000000000, 0.0000000000000000000 ) ) ;
#183 = CARTESIAN_POINT ( 'NONE',  ( 1.047444401652940007E-13, 4.874219293650981803E-33, 30.00000000000000000 ) ) ;
#184 = VERTEX_POINT ( 'NONE', #22 ) ;
#185 = CONICAL_SURFACE ( 'NONE', #77, 0.7499999999999972244, 0.5235987755982944858 ) ;
#186 = MECHANICAL_CONTEXT ( 'NONE', #171, 'mechanical' ) ;
#187 = CALENDAR_DATE ( 2021, 8, 10 ) ;
#188 = CALENDAR_DATE ( 2021, 8, 10 ) ;
#189 = ORIENTED_EDGE ( 'NONE', *, *, #95, .T. ) ;
#190 = APPROVAL_STATUS ( 'not_yet_approved' ) ;
#191 = APPLICATION_CONTEXT ( 'configuration controlled 3d designs of mechanical parts and assemblies' ) ;
#192 = ORIENTED_EDGE ( 'NONE', *, *, #122, .F. ) ;
#193 = APPROVAL_DATE_TIME ( #47, #155 ) ;
#194 = APPROVAL_STATUS ( 'not_yet_approved' ) ;
#195 = EDGE_CURVE ( 'NONE', #55, #55, #175, .T. ) ;
#196 = EDGE_LOOP ( 'NONE', ( #24 ) ) ;
#197 = AXIS2_PLACEMENT_3D ( 'NONE', #13, #134, #15 ) ;
#198 = DIRECTION ( 'NONE',  ( 3.491481338843133355E-15, -1.224646799147353207E-16, 1.000000000000000000 ) ) ;
#199 = CARTESIAN_POINT ( 'NONE',  ( 8.264811532491797827E-16, 0.4099999999999992539, 0.2367136103677489056 ) ) ;
#200 = CYLINDRICAL_SURFACE ( 'NONE', #5, 0.7499999999999985567 ) ;
#201 = ADVANCED_BREP_SHAPE_REPRESENTATION ( '957994', ( #163, #27, #32 ), #3 ) ;
#202 = CARTESIAN_POINT ( 'NONE',  ( 2.405245627938042099E-14, -8.436465996961264732E-16, 6.888897274573420937 ) ) ;
#203 = APPROVAL_PERSON_ORGANIZATION ( #20, #17, #57 ) ;
#204 = VERTEX_POINT ( 'NONE', #199 ) ;
#205 =( NAMED_UNIT ( * ) PLANE_ANGLE_UNIT ( ) SI_UNIT ( $, .RADIAN. ) );
#206 = AXIS2_PLACEMENT_3D ( 'NONE', #183, #34, #62 ) ;
#207 = DATE_AND_TIME ( #145, #23 ) ;
#208 = CARTESIAN_POINT ( 'NONE',  ( 2.199633243471174645E-14, 0.4099999999999993650, 6.300000000000001599 ) ) ;
#209 = CC_DESIGN_PERSON_AND_ORGANIZATION_ASSIGNMENT ( #84, #2, ( #28 ) ) ;
#210 = CC_DESIGN_PERSON_AND_ORGANIZATION_ASSIGNMENT ( #71, #143, ( #117 ) ) ;
#211 = EDGE_LOOP ( 'NONE', ( #41 ) ) ;
#212 = VERTEX_POINT ( 'NONE', #208 ) ;
#213 = ORIENTED_EDGE ( 'NONE', *, *, #95, .F. ) ;
#214 = ORGANIZATION ( 'UNSPECIFIED', 'UNSPECIFIED', '' ) ;
#215 = EDGE_LOOP ( 'NONE', ( #147 ) ) ;
#216 = ADVANCED_FACE ( 'NONE', ( #30, #92 ), #164, .T. ) ;
#217 = CARTESIAN_POINT ( 'NONE',  ( 1.047444401652940007E-13, -3.673940397442059178E-15, 30.00000000000000000 ) ) ;
#218 = ADVANCED_FACE ( 'NONE', ( #149 ), #152, .F. ) ;
#219 = DIRECTION ( 'NONE',  ( -3.491481338843133355E-15, 1.224646799147353207E-16, -1.000000000000000000 ) ) ;
#220 = FACE_OUTER_BOUND ( 'NONE', #211, .T. ) ;
#221 = CONICAL_SURFACE ( 'NONE', #44, 0.4099999999999993094, 1.047197551196592746 ) ;
#222 = FACE_OUTER_BOUND ( 'NONE', #26, .T. ) ;
#223 = DIRECTION ( 'NONE',  ( -3.491481338843133355E-15, 1.224646799147353207E-16, -1.000000000000000000 ) ) ;
ENDSEC;
END-ISO-10303-21;
