ISO-10303-21;
HEADER;
FILE_DESCRIPTION (( 'STEP AP203' ),
    '1' );
FILE_NAME ('957991.step',
    '2021-10-08T08:13:01',
    ( '' ),
    ( '' ),
    'SwSTEP 2.0',
    'SolidWorks 2019',
    '' );
FILE_SCHEMA (( 'CONFIG_CONTROL_DESIGN' ));
ENDSEC;

DATA;
#1 = MANIFOLD_SOLID_BREP ( 'Corps-Déplacer/Copier1[2]', #197 ) ;
#2 = MANIFOLD_SOLID_BREP ( 'Corps-Déplacer/Copier1[1]', #44 ) ;
#3 = CC_DESIGN_PERSON_AND_ORGANIZATION_ASSIGNMENT ( #9, #141, ( #82 ) ) ;
#4 = DIRECTION ( 'NONE',  ( 3.491481338843133355E-15, -1.224646799147353207E-16, 1.000000000000000000 ) ) ;
#5 = CARTESIAN_POINT ( 'NONE',  ( 2.199633243471174014E-14, 3.037013559890246192E-33, 6.299999999999999822 ) ) ;
#6 = ADVANCED_FACE ( 'NONE', ( #32, #14 ), #133, .T. ) ;
#7 = CARTESIAN_POINT ( 'NONE',  ( 1.043952920314096810E-13, 0.7499999999999963363, 29.89999999999999858 ) ) ;
#8 = CC_DESIGN_PERSON_AND_ORGANIZATION_ASSIGNMENT ( #49, #198, ( #189 ) ) ;
#9 = PERSON_AND_ORGANIZATION ( #136, #172 ) ;
#10 = APPROVAL_PERSON_ORGANIZATION ( #127, #101, #125 ) ;
#11 = CARTESIAN_POINT ( 'NONE',  ( 2.199633243471174014E-14, 0.4049999999999986944, 6.299999999999999822 ) ) ;
#12 = FACE_OUTER_BOUND ( 'NONE', #202, .T. ) ;
#13 = DATE_AND_TIME ( #184, #178 ) ;
#14 = FACE_OUTER_BOUND ( 'NONE', #112, .T. ) ;
#15 = AXIS2_PLACEMENT_3D ( 'NONE', #108, #59, #92 ) ;
#16 = ADVANCED_FACE ( 'NONE', ( #131 ), #62, .T. ) ;
#17 = CARTESIAN_POINT ( 'NONE',  ( 8.164021147949202517E-16, -2.863553144557272434E-17, 0.2338268590218003928 ) ) ;
#18 = ORIENTED_EDGE ( 'NONE', *, *, #130, .T. ) ;
#19 = CONICAL_SURFACE ( 'NONE', #68, 0.6500000000000000222, 0.7853981633974516097 ) ;
#20 = DIRECTION ( 'NONE',  ( -3.491481338843133355E-15, 1.224646799147353207E-16, -1.000000000000000000 ) ) ;
#21 = LOCAL_TIME ( 10, 13, 1.000000000000000000, #170 ) ;
#22 = CARTESIAN_POINT ( 'NONE',  ( 8.164021147949204489E-16, 0.4049999999999986944, 0.2338268590218004483 ) ) ;
#23 = CC_DESIGN_PERSON_AND_ORGANIZATION_ASSIGNMENT ( #179, #75, ( #144 ) ) ;
#24 = DIRECTION ( 'NONE',  ( -3.491481338843133355E-15, 1.224646799147353207E-16, -1.000000000000000000 ) ) ;
#25 = CC_DESIGN_SECURITY_CLASSIFICATION ( #189, ( #72 ) ) ;
#26 = CALENDAR_DATE ( 2021, 8, 10 ) ;
#27 = APPROVAL_STATUS ( 'not_yet_approved' ) ;
#28 = ADVANCED_FACE ( 'NONE', ( #70 ), #100, .F. ) ;
#29 = SHAPE_DEFINITION_REPRESENTATION ( #164, #105 ) ;
#30 = CARTESIAN_POINT ( 'NONE',  ( 2.199633243471174014E-14, -7.715274834628325378E-16, 6.299999999999999822 ) ) ;
#31 = DATE_TIME_ROLE ( 'classification_date' ) ;
#32 = FACE_OUTER_BOUND ( 'NONE', #201, .T. ) ;
#33 = EDGE_LOOP ( 'NONE', ( #199 ) ) ;
#34 = AXIS2_PLACEMENT_3D ( 'NONE', #56, #120, #37 ) ;
#35 = AXIS2_PLACEMENT_3D ( 'NONE', #53, #51, #218 ) ;
#36 = CARTESIAN_POINT ( 'NONE',  ( 2.408269339474320235E-14, -8.447071749348518133E-16, 6.897557528611267585 ) ) ;
#37 = DIRECTION ( 'NONE',  ( 0.0000000000000000000, 1.000000000000000000, 0.0000000000000000000 ) ) ;
#38 = AXIS2_PLACEMENT_3D ( 'NONE', #30, #66, #183 ) ;
#39 = FACE_OUTER_BOUND ( 'NONE', #203, .T. ) ;
#40 = COORDINATED_UNIVERSAL_TIME_OFFSET ( 1, 0, .AHEAD. ) ;
#41 = CARTESIAN_POINT ( 'NONE',  ( 1.047444401652940007E-13, 0.6499999999999962474, 30.00000000000000000 ) ) ;
#42 = CALENDAR_DATE ( 2021, 8, 10 ) ;
#43 = LOCAL_TIME ( 10, 13, 1.000000000000000000, #195 ) ;
#44 = CLOSED_SHELL ( 'NONE', ( #194, #207, #46, #106, #28 ) ) ;
#45 = AXIS2_PLACEMENT_3D ( 'NONE', #191, #143, #160 ) ;
#46 = ADVANCED_FACE ( 'NONE', ( #155, #80 ), #204, .T. ) ;
#47 = PRODUCT_RELATED_PRODUCT_CATEGORY ( 'detail', '', ( #82 ) ) ;
#48 = CARTESIAN_POINT ( 'NONE',  ( 0.0000000000000000000, 0.0000000000000000000, 0.0000000000000000000 ) ) ;
#49 = PERSON_AND_ORGANIZATION ( #136, #172 ) ;
#50 = DATE_AND_TIME ( #222, #21 ) ;
#51 = DIRECTION ( 'NONE',  ( -3.491481338843133355E-15, 1.224646799147353207E-16, -1.000000000000000000 ) ) ;
#52 = APPROVAL_DATE_TIME ( #50, #214 ) ;
#53 = CARTESIAN_POINT ( 'NONE',  ( 0.0000000000000000000, 0.0000000000000000000, 0.0000000000000000000 ) ) ;
#54 = DIRECTION ( 'NONE',  ( -3.491481338843133355E-15, 1.224646799147353207E-16, -1.000000000000000000 ) ) ;
#55 = AXIS2_PLACEMENT_3D ( 'NONE', #17, #77, #116 ) ;
#56 = CARTESIAN_POINT ( 'NONE',  ( 1.043952920314096810E-13, -3.661693929450586610E-15, 29.89999999999999858 ) ) ;
#57 = CIRCLE ( 'NONE', #38, 0.4049999999999994160 ) ;
#58 = CC_DESIGN_DATE_AND_TIME_ASSIGNMENT ( #13, #31, ( #189 ) ) ;
#59 = DIRECTION ( 'NONE',  ( 3.491481338843133355E-15, -1.224646799147353207E-16, 1.000000000000000000 ) ) ;
#60 =( LENGTH_UNIT ( ) NAMED_UNIT ( * ) SI_UNIT ( .MILLI., .METRE. ) );
#61 = AXIS2_PLACEMENT_3D ( 'NONE', #138, #156, #205 ) ;
#62 = CONICAL_SURFACE ( 'NONE', #55, 0.4049999999999987499, 1.047197551196592746 ) ;
#63 = APPROVAL_ROLE ( '' ) ;
#64 = DIRECTION ( 'NONE',  ( 4.275831445896958607E-31, 1.000000000000000000, 1.224646799147353207E-16 ) ) ;
#65 = DATE_AND_TIME ( #26, #208 ) ;
#66 = DIRECTION ( 'NONE',  ( -3.491481338843133355E-15, 1.224646799147353207E-16, -1.000000000000000000 ) ) ;
#67 = ORIENTED_EDGE ( 'NONE', *, *, #121, .F. ) ;
#68 = AXIS2_PLACEMENT_3D ( 'NONE', #173, #20, #157 ) ;
#69 = APPROVAL ( #27, 'UNSPECIFIED' ) ;
#70 = FACE_OUTER_BOUND ( 'NONE', #152, .T. ) ;
#71 = DIRECTION ( 'NONE',  ( 0.0000000000000000000, 1.000000000000000000, 0.0000000000000000000 ) ) ;
#72 = PRODUCT_DEFINITION_FORMATION_WITH_SPECIFIED_SOURCE ( 'ANY', '', #82, .NOT_KNOWN. ) ;
#73 = CARTESIAN_POINT ( 'NONE',  ( 0.0000000000000000000, 0.0000000000000000000, 0.0000000000000000000 ) ) ;
#74 =( NAMED_UNIT ( * ) SI_UNIT ( $, .STERADIAN. ) SOLID_ANGLE_UNIT ( ) );
#75 = PERSON_AND_ORGANIZATION_ROLE ( 'creator' ) ;
#76 = DATE_AND_TIME ( #168, #93 ) ;
#77 = DIRECTION ( 'NONE',  ( 3.491481338843133355E-15, -1.224646799147353207E-16, 1.000000000000000000 ) ) ;
#78 = AXIS2_PLACEMENT_3D ( 'NONE', #89, #24, #193 ) ;
#79 = COORDINATED_UNIVERSAL_TIME_OFFSET ( 1, 0, .AHEAD. ) ;
#80 = FACE_OUTER_BOUND ( 'NONE', #117, .T. ) ;
#81 = ORIENTED_EDGE ( 'NONE', *, *, #85, .T. ) ;
#82 = PRODUCT ( '957991', '957991', '', ( #192 ) ) ;
#83 = APPROVAL_DATE_TIME ( #76, #69 ) ;
#84 = DIRECTION ( 'NONE',  ( -3.491481338843133355E-15, 1.224646799147353207E-16, -1.000000000000000000 ) ) ;
#85 = EDGE_CURVE ( 'NONE', #94, #94, #57, .T. ) ;
#86 = DIRECTION ( 'NONE',  ( -4.275831445896958607E-31, -1.000000000000000000, -1.224646799147353207E-16 ) ) ;
#87 = CC_DESIGN_DATE_AND_TIME_ASSIGNMENT ( #65, #128, ( #144 ) ) ;
#88 = AXIS2_PLACEMENT_3D ( 'NONE', #73, #175, #104 ) ;
#89 = CARTESIAN_POINT ( 'NONE',  ( 1.047444401652940007E-13, -3.673940397442059178E-15, 30.00000000000000000 ) ) ;
#90 = VERTEX_POINT ( 'NONE', #22 ) ;
#91 = CC_DESIGN_PERSON_AND_ORGANIZATION_ASSIGNMENT ( #154, #182, ( #72 ) ) ;
#92 = DIRECTION ( 'NONE',  ( 0.0000000000000000000, -1.000000000000000000, 0.0000000000000000000 ) ) ;
#93 = LOCAL_TIME ( 10, 13, 1.000000000000000000, #200 ) ;
#94 = VERTEX_POINT ( 'NONE', #123 ) ;
#95 = EDGE_LOOP ( 'NONE', ( #167 ) ) ;
#96 = ADVANCED_FACE ( 'NONE', ( #39 ), #211, .T. ) ;
#97 = APPROVAL_STATUS ( 'not_yet_approved' ) ;
#98 = EDGE_LOOP ( 'NONE', ( #135 ) ) ;
#99 = PERSON_AND_ORGANIZATION_ROLE ( 'design_supplier' ) ;
#100 = PLANE ( 'NONE',  #159 ) ;
#101 = APPROVAL ( #165, 'UNSPECIFIED' ) ;
#102 =( GEOMETRIC_REPRESENTATION_CONTEXT ( 3 ) GLOBAL_UNCERTAINTY_ASSIGNED_CONTEXT ( ( #113 ) ) GLOBAL_UNIT_ASSIGNED_CONTEXT ( ( #60, #176, #74 ) ) REPRESENTATION_CONTEXT ( 'NONE', 'WORKASPACE' ) );
#103 = DIRECTION ( 'NONE',  ( -3.491481338843133355E-15, 1.224646799147353207E-16, -1.000000000000000000 ) ) ;
#104 = DIRECTION ( 'NONE',  ( 1.000000000000000000, 0.0000000000000000000, 0.0000000000000000000 ) ) ;
#105 = ADVANCED_BREP_SHAPE_REPRESENTATION ( '957991', ( #2, #1, #88 ), #102 ) ;
#106 = ADVANCED_FACE ( 'NONE', ( #206, #122 ), #19, .T. ) ;
#107 = DIRECTION ( 'NONE',  ( 0.0000000000000000000, 1.000000000000000000, 0.0000000000000000000 ) ) ;
#108 = CARTESIAN_POINT ( 'NONE',  ( 2.408269339474320235E-14, -8.447071749348518133E-16, 6.897557528611267585 ) ) ;
#109 = APPROVAL_DATE_TIME ( #190, #101 ) ;
#110 = CIRCLE ( 'NONE', #34, 0.7500000000000000000 ) ;
#111 = DIRECTION ( 'NONE',  ( 4.275831445896959482E-31, 1.000000000000000000, 1.224646799147353454E-16 ) ) ;
#112 = EDGE_LOOP ( 'NONE', ( #186 ) ) ;
#113 = UNCERTAINTY_MEASURE_WITH_UNIT (LENGTH_MEASURE( 1.000000000000000082E-05 ), #60, 'distance_accuracy_value', 'NONE');
#114 = PERSON_AND_ORGANIZATION ( #136, #172 ) ;
#115 = APPROVAL_ROLE ( '' ) ;
#116 = DIRECTION ( 'NONE',  ( -4.755382578733930565E-31, -1.000000000000000000, -1.338521200599392378E-16 ) ) ;
#117 = EDGE_LOOP ( 'NONE', ( #18 ) ) ;
#118 = CONICAL_SURFACE ( 'NONE', #15, 0.7499999999999972244, 0.5235987755982922653 ) ;
#119 = CARTESIAN_POINT ( 'NONE',  ( 2.199633243471174014E-14, -7.715274834628325378E-16, 6.299999999999999822 ) ) ;
#120 = DIRECTION ( 'NONE',  ( -3.491481338843133355E-15, 1.224646799147353207E-16, -1.000000000000000000 ) ) ;
#121 = EDGE_CURVE ( 'NONE', #90, #90, #140, .T. ) ;
#122 = FACE_BOUND ( 'NONE', #95, .T. ) ;
#123 = CARTESIAN_POINT ( 'NONE',  ( 2.199633243471174014E-14, 0.4049999999999986944, 6.299999999999999822 ) ) ;
#124 = VERTEX_POINT ( 'NONE', #7 ) ;
#125 = APPROVAL_ROLE ( '' ) ;
#126 = EDGE_CURVE ( 'NONE', #216, #216, #149, .T. ) ;
#127 = PERSON_AND_ORGANIZATION ( #136, #172 ) ;
#128 = DATE_TIME_ROLE ( 'creation_date' ) ;
#129 = CC_DESIGN_APPROVAL ( #69, ( #189 ) ) ;
#130 = EDGE_CURVE ( 'NONE', #124, #124, #110, .T. ) ;
#131 = FACE_OUTER_BOUND ( 'NONE', #98, .T. ) ;
#132 = EDGE_LOOP ( 'NONE', ( #219 ) ) ;
#133 = CYLINDRICAL_SURFACE ( 'NONE', #35, 0.4049999999999991385 ) ;
#134 = EDGE_CURVE ( 'NONE', #213, #213, #139, .T. ) ;
#135 = ORIENTED_EDGE ( 'NONE', *, *, #121, .T. ) ;
#136 = PERSON ( 'UNSPECIFIED', 'UNSPECIFIED', 'UNSPECIFIED', ('UNSPECIFIED'), ('UNSPECIFIED'), ('UNSPECIFIED') ) ;
#137 = EDGE_CURVE ( 'NONE', #162, #162, #163, .T. ) ;
#138 = CARTESIAN_POINT ( 'NONE',  ( 8.164021147949202517E-16, -2.863553144557272434E-17, 0.2338268590218003928 ) ) ;
#139 = CIRCLE ( 'NONE', #196, 0.7499999999999972244 ) ;
#140 = CIRCLE ( 'NONE', #61, 0.4049999999999987499 ) ;
#141 = PERSON_AND_ORGANIZATION_ROLE ( 'design_owner' ) ;
#142 = FACE_BOUND ( 'NONE', #132, .T. ) ;
#143 = DIRECTION ( 'NONE',  ( 3.491481338843133355E-15, -1.224646799147353207E-16, 1.000000000000000000 ) ) ;
#144 = PRODUCT_DEFINITION ( 'UNKNOWN', '', #72, #148 ) ;
#145 = FACE_OUTER_BOUND ( 'NONE', #220, .T. ) ;
#146 = APPLICATION_CONTEXT ( 'configuration controlled 3d designs of mechanical parts and assemblies' ) ;
#147 = PLANE ( 'NONE',  #45 ) ;
#148 = DESIGN_CONTEXT ( 'detailed design', #215, 'design' ) ;
#149 = CIRCLE ( 'NONE', #221, 0.4049999999999994160 ) ;
#150 = ORIENTED_EDGE ( 'NONE', *, *, #137, .F. ) ;
#151 = ORIENTED_EDGE ( 'NONE', *, *, #134, .F. ) ;
#152 = EDGE_LOOP ( 'NONE', ( #150 ) ) ;
#153 = PERSON_AND_ORGANIZATION ( #136, #172 ) ;
#154 = PERSON_AND_ORGANIZATION ( #136, #172 ) ;
#155 = FACE_OUTER_BOUND ( 'NONE', #223, .T. ) ;
#156 = DIRECTION ( 'NONE',  ( -3.491481338843133355E-15, 1.224646799147353207E-16, -1.000000000000000000 ) ) ;
#157 = DIRECTION ( 'NONE',  ( 0.0000000000000000000, 1.000000000000000000, 0.0000000000000000000 ) ) ;
#158 = AXIS2_PLACEMENT_3D ( 'NONE', #48, #54, #111 ) ;
#159 = AXIS2_PLACEMENT_3D ( 'NONE', #171, #84, #64 ) ;
#160 = DIRECTION ( 'NONE',  ( -4.275831445896958607E-31, -1.000000000000000000, -1.224646799147353207E-16 ) ) ;
#161 = APPLICATION_PROTOCOL_DEFINITION ( 'international standard', 'config_control_design', 1994, #146 ) ;
#162 = VERTEX_POINT ( 'NONE', #41 ) ;
#163 = CIRCLE ( 'NONE', #78, 0.6500000000000000222 ) ;
#164 = PRODUCT_DEFINITION_SHAPE ( 'NONE', 'NONE',  #144 ) ;
#165 = APPROVAL_STATUS ( 'not_yet_approved' ) ;
#166 = ORIENTED_EDGE ( 'NONE', *, *, #134, .T. ) ;
#167 = ORIENTED_EDGE ( 'NONE', *, *, #137, .T. ) ;
#168 = CALENDAR_DATE ( 2021, 8, 10 ) ;
#169 = ORIENTED_EDGE ( 'NONE', *, *, #126, .F. ) ;
#170 = COORDINATED_UNIVERSAL_TIME_OFFSET ( 1, 0, .AHEAD. ) ;
#171 = CARTESIAN_POINT ( 'NONE',  ( 1.047444401652940007E-13, 4.874219293650981803E-33, 30.00000000000000000 ) ) ;
#172 = ORGANIZATION ( 'UNSPECIFIED', 'UNSPECIFIED', '' ) ;
#173 = CARTESIAN_POINT ( 'NONE',  ( 1.047444401652940007E-13, -3.673940397442059178E-15, 30.00000000000000000 ) ) ;
#174 = APPROVAL_PERSON_ORGANIZATION ( #181, #69, #115 ) ;
#175 = DIRECTION ( 'NONE',  ( 0.0000000000000000000, 0.0000000000000000000, 1.000000000000000000 ) ) ;
#176 =( NAMED_UNIT ( * ) PLANE_ANGLE_UNIT ( ) SI_UNIT ( $, .RADIAN. ) );
#177 = CARTESIAN_POINT ( 'NONE',  ( 2.408269339474320235E-14, 0.7499999999999963363, 6.897557528611267585 ) ) ;
#178 = LOCAL_TIME ( 10, 13, 1.000000000000000000, #79 ) ;
#179 = PERSON_AND_ORGANIZATION ( #136, #172 ) ;
#180 = APPROVAL_PERSON_ORGANIZATION ( #153, #214, #63 ) ;
#181 = PERSON_AND_ORGANIZATION ( #136, #172 ) ;
#182 = PERSON_AND_ORGANIZATION_ROLE ( 'creator' ) ;
#183 = DIRECTION ( 'NONE',  ( 0.0000000000000000000, 1.000000000000000000, 0.0000000000000000000 ) ) ;
#184 = CALENDAR_DATE ( 2021, 8, 10 ) ;
#185 = SECURITY_CLASSIFICATION_LEVEL ( 'unclassified' ) ;
#186 = ORIENTED_EDGE ( 'NONE', *, *, #126, .T. ) ;
#187 = CC_DESIGN_APPROVAL ( #101, ( #144 ) ) ;
#188 = DIRECTION ( 'NONE',  ( -3.491481338843133355E-15, 1.224646799147353207E-16, -1.000000000000000000 ) ) ;
#189 = SECURITY_CLASSIFICATION ( '', '', #185 ) ;
#190 = DATE_AND_TIME ( #42, #43 ) ;
#191 = CARTESIAN_POINT ( 'NONE',  ( 2.199633243471174014E-14, 3.037013559890246192E-33, 6.299999999999999822 ) ) ;
#192 = MECHANICAL_CONTEXT ( 'NONE', #146, 'mechanical' ) ;
#193 = DIRECTION ( 'NONE',  ( 0.0000000000000000000, 1.000000000000000000, 0.0000000000000000000 ) ) ;
#194 = ADVANCED_FACE ( 'NONE', ( #145 ), #147, .F. ) ;
#195 = COORDINATED_UNIVERSAL_TIME_OFFSET ( 1, 0, .AHEAD. ) ;
#196 = AXIS2_PLACEMENT_3D ( 'NONE', #36, #103, #107 ) ;
#197 = CLOSED_SHELL ( 'NONE', ( #16, #6, #96 ) ) ;
#198 = PERSON_AND_ORGANIZATION_ROLE ( 'classification_officer' ) ;
#199 = ORIENTED_EDGE ( 'NONE', *, *, #130, .F. ) ;
#200 = COORDINATED_UNIVERSAL_TIME_OFFSET ( 1, 0, .AHEAD. ) ;
#201 = EDGE_LOOP ( 'NONE', ( #67 ) ) ;
#202 = EDGE_LOOP ( 'NONE', ( #166 ) ) ;
#203 = EDGE_LOOP ( 'NONE', ( #169 ) ) ;
#204 = CYLINDRICAL_SURFACE ( 'NONE', #158, 0.7499999999999985567 ) ;
#205 = DIRECTION ( 'NONE',  ( 4.755382578733930565E-31, 1.000000000000000000, 1.338521200599392378E-16 ) ) ;
#206 = FACE_OUTER_BOUND ( 'NONE', #33, .T. ) ;
#207 = ADVANCED_FACE ( 'NONE', ( #142, #12 ), #118, .T. ) ;
#208 = LOCAL_TIME ( 10, 13, 1.000000000000000000, #40 ) ;
#209 = CC_DESIGN_PERSON_AND_ORGANIZATION_ASSIGNMENT ( #114, #99, ( #72 ) ) ;
#210 = AXIS2_PLACEMENT_3D ( 'NONE', #5, #4, #86 ) ;
#211 = PLANE ( 'NONE',  #210 ) ;
#212 = APPLICATION_PROTOCOL_DEFINITION ( 'international standard', 'config_control_design', 1994, #215 ) ;
#213 = VERTEX_POINT ( 'NONE', #177 ) ;
#214 = APPROVAL ( #97, 'UNSPECIFIED' ) ;
#215 = APPLICATION_CONTEXT ( 'configuration controlled 3d designs of mechanical parts and assemblies' ) ;
#216 = VERTEX_POINT ( 'NONE', #11 ) ;
#217 = CC_DESIGN_APPROVAL ( #214, ( #72 ) ) ;
#218 = DIRECTION ( 'NONE',  ( 4.275831445896958607E-31, 1.000000000000000000, 1.224646799147353207E-16 ) ) ;
#219 = ORIENTED_EDGE ( 'NONE', *, *, #85, .F. ) ;
#220 = EDGE_LOOP ( 'NONE', ( #81 ) ) ;
#221 = AXIS2_PLACEMENT_3D ( 'NONE', #119, #188, #71 ) ;
#222 = CALENDAR_DATE ( 2021, 8, 10 ) ;
#223 = EDGE_LOOP ( 'NONE', ( #151 ) ) ;
ENDSEC;
END-ISO-10303-21;
