ISO-10303-21;
HEADER;
FILE_DESCRIPTION (( 'STEP AP203' ),
    '1' );
FILE_NAME ('957990.step',
    '2021-10-08T05:54:13',
    ( '' ),
    ( '' ),
    'SwSTEP 2.0',
    'SolidWorks 2019',
    '' );
FILE_SCHEMA (( 'CONFIG_CONTROL_DESIGN' ));
ENDSEC;

DATA;
#1 = FACE_OUTER_BOUND ( 'NONE', #35, .T. ) ;
#2 = DIRECTION ( 'NONE',  ( 0.0000000000000000000, 1.000000000000000000, 0.0000000000000000000 ) ) ;
#3 = LOCAL_TIME ( 7, 54, 13.00000000000000000, #135 ) ;
#4 = VERTEX_POINT ( 'NONE', #97 ) ;
#5 = CARTESIAN_POINT ( 'NONE',  ( 2.408269339474319604E-14, -8.447071749348515175E-16, 6.897557528611265809 ) ) ;
#6 = ADVANCED_FACE ( 'NONE', ( #188, #156 ), #221, .T. ) ;
#7 = DIRECTION ( 'NONE',  ( 1.000000000000000000, 0.0000000000000000000, 0.0000000000000000000 ) ) ;
#8 = AXIS2_PLACEMENT_3D ( 'NONE', #141, #140, #205 ) ;
#9 = AXIS2_PLACEMENT_3D ( 'NONE', #151, #42, #82 ) ;
#10 = VERTEX_POINT ( 'NONE', #178 ) ;
#11 = CARTESIAN_POINT ( 'NONE',  ( 1.047444401652940007E-13, 0.6499999999999962474, 30.00000000000000000 ) ) ;
#12 = DATE_TIME_ROLE ( 'classification_date' ) ;
#13 = SECURITY_CLASSIFICATION_LEVEL ( 'unclassified' ) ;
#14 = PERSON_AND_ORGANIZATION ( #129, #145 ) ;
#15 = PERSON_AND_ORGANIZATION ( #129, #145 ) ;
#16 = EDGE_CURVE ( 'NONE', #26, #26, #157, .T. ) ;
#17 = ORIENTED_EDGE ( 'NONE', *, *, #124, .F. ) ;
#18 = CARTESIAN_POINT ( 'NONE',  ( 1.047444401652940007E-13, -3.673940397442059178E-15, 30.00000000000000000 ) ) ;
#19 = EDGE_LOOP ( 'NONE', ( #92 ) ) ;
#20 = PLANE ( 'NONE',  #25 ) ;
#21 = LOCAL_TIME ( 7, 54, 13.00000000000000000, #198 ) ;
#22 = DIRECTION ( 'NONE',  ( 0.0000000000000000000, 1.000000000000000000, 0.0000000000000000000 ) ) ;
#23 = VERTEX_POINT ( 'NONE', #11 ) ;
#24 = DIRECTION ( 'NONE',  ( -3.491481338843133355E-15, 1.224646799147353207E-16, -1.000000000000000000 ) ) ;
#25 = AXIS2_PLACEMENT_3D ( 'NONE', #146, #159, #101 ) ;
#26 = VERTEX_POINT ( 'NONE', #179 ) ;
#27 = CALENDAR_DATE ( 2021, 8, 10 ) ;
#28 = DATE_AND_TIME ( #183, #21 ) ;
#29 = MECHANICAL_CONTEXT ( 'NONE', #113, 'mechanical' ) ;
#30 = ADVANCED_FACE ( 'NONE', ( #204, #154 ), #33, .T. ) ;
#31 = DATE_AND_TIME ( #86, #52 ) ;
#32 = CIRCLE ( 'NONE', #109, 0.4049999999999991940 ) ;
#33 = CYLINDRICAL_SURFACE ( 'NONE', #49, 0.4049999999999997491 ) ;
#34 = ORIENTED_EDGE ( 'NONE', *, *, #212, .T. ) ;
#35 = EDGE_LOOP ( 'NONE', ( #110 ) ) ;
#36 = CC_DESIGN_PERSON_AND_ORGANIZATION_ASSIGNMENT ( #15, #168, ( #60 ) ) ;
#37 = APPLICATION_CONTEXT ( 'configuration controlled 3d designs of mechanical parts and assemblies' ) ;
#38 = CARTESIAN_POINT ( 'NONE',  ( 8.164021147949211391E-16, -2.863553144557275516E-17, 0.2338268590218006149 ) ) ;
#39 = DIRECTION ( 'NONE',  ( -3.491481338843133355E-15, 1.224646799147353207E-16, -1.000000000000000000 ) ) ;
#40 = EDGE_CURVE ( 'NONE', #117, #117, #144, .T. ) ;
#41 = FACE_OUTER_BOUND ( 'NONE', #53, .T. ) ;
#42 = DIRECTION ( 'NONE',  ( -3.491481338843133355E-15, 1.224646799147353207E-16, -1.000000000000000000 ) ) ;
#43 = FACE_OUTER_BOUND ( 'NONE', #202, .T. ) ;
#44 = DIRECTION ( 'NONE',  ( 3.491481338843133355E-15, -1.224646799147353207E-16, 1.000000000000000000 ) ) ;
#45 = ADVANCED_FACE ( 'NONE', ( #203, #1 ), #75, .T. ) ;
#46 = CONICAL_SURFACE ( 'NONE', #94, 0.4049999999999991940, 1.047197551196592746 ) ;
#47 = ADVANCED_FACE ( 'NONE', ( #189 ), #46, .T. ) ;
#48 = APPROVAL_DATE_TIME ( #31, #163 ) ;
#49 = AXIS2_PLACEMENT_3D ( 'NONE', #71, #77, #126 ) ;
#50 = CC_DESIGN_APPROVAL ( #121, ( #102 ) ) ;
#51 = APPROVAL_DATE_TIME ( #218, #121 ) ;
#52 = LOCAL_TIME ( 7, 54, 13.00000000000000000, #166 ) ;
#53 = EDGE_LOOP ( 'NONE', ( #88 ) ) ;
#54 = CARTESIAN_POINT ( 'NONE',  ( 2.199633243471174014E-14, -7.715274834628325378E-16, 6.299999999999999822 ) ) ;
#55 = EDGE_LOOP ( 'NONE', ( #125 ) ) ;
#56 = LOCAL_TIME ( 7, 54, 13.00000000000000000, #66 ) ;
#57 = ORIENTED_EDGE ( 'NONE', *, *, #192, .F. ) ;
#58 = DIRECTION ( 'NONE',  ( 3.491481338843133355E-15, -1.224646799147353207E-16, 1.000000000000000000 ) ) ;
#59 = FACE_OUTER_BOUND ( 'NONE', #74, .T. ) ;
#60 = SECURITY_CLASSIFICATION ( '', '', #13 ) ;
#61 = PLANE ( 'NONE',  #195 ) ;
#62 = CC_DESIGN_DATE_AND_TIME_ASSIGNMENT ( #28, #12, ( #60 ) ) ;
#63 = APPLICATION_PROTOCOL_DEFINITION ( 'international standard', 'config_control_design', 1994, #113 ) ;
#64 = CARTESIAN_POINT ( 'NONE',  ( 0.0000000000000000000, 0.0000000000000000000, 0.0000000000000000000 ) ) ;
#65 = PERSON_AND_ORGANIZATION_ROLE ( 'creator' ) ;
#66 = COORDINATED_UNIVERSAL_TIME_OFFSET ( 1, 0, .AHEAD. ) ;
#67 = PERSON_AND_ORGANIZATION_ROLE ( 'creator' ) ;
#68 = CLOSED_SHELL ( 'NONE', ( #47, #30, #137 ) ) ;
#69 = APPROVAL_ROLE ( '' ) ;
#70 = MANIFOLD_SOLID_BREP ( 'Corps-Déplacer/Copier1[2]', #68 ) ;
#71 = CARTESIAN_POINT ( 'NONE',  ( 0.0000000000000000000, 0.0000000000000000000, 0.0000000000000000000 ) ) ;
#72 = AXIS2_PLACEMENT_3D ( 'NONE', #18, #201, #2 ) ;
#73 = ORIENTED_EDGE ( 'NONE', *, *, #16, .F. ) ;
#74 = EDGE_LOOP ( 'NONE', ( #73 ) ) ;
#75 = CYLINDRICAL_SURFACE ( 'NONE', #8, 0.7499999999999984457 ) ;
#76 = AXIS2_PLACEMENT_3D ( 'NONE', #207, #160, #22 ) ;
#77 = DIRECTION ( 'NONE',  ( -3.491481338843133355E-15, 1.224646799147353207E-16, -1.000000000000000000 ) ) ;
#78 = CARTESIAN_POINT ( 'NONE',  ( 8.164021147949212377E-16, 0.4049999999999991385, 0.2338268590218006704 ) ) ;
#79 = FACE_BOUND ( 'NONE', #87, .T. ) ;
#80 = AXIS2_PLACEMENT_3D ( 'NONE', #64, #161, #7 ) ;
#81 = CARTESIAN_POINT ( 'NONE',  ( 2.199633243471174014E-14, 3.037013559890252350E-33, 6.299999999999999822 ) ) ;
#82 = DIRECTION ( 'NONE',  ( 0.0000000000000000000, 1.000000000000000000, 0.0000000000000000000 ) ) ;
#83 = PERSON_AND_ORGANIZATION ( #129, #145 ) ;
#84 = CC_DESIGN_PERSON_AND_ORGANIZATION_ASSIGNMENT ( #167, #65, ( #102 ) ) ;
#85 = APPROVAL_STATUS ( 'not_yet_approved' ) ;
#86 = CALENDAR_DATE ( 2021, 8, 10 ) ;
#87 = EDGE_LOOP ( 'NONE', ( #222 ) ) ;
#88 = ORIENTED_EDGE ( 'NONE', *, *, #107, .T. ) ;
#89 = CIRCLE ( 'NONE', #9, 0.4050000000000003042 ) ;
#90 = EDGE_LOOP ( 'NONE', ( #175 ) ) ;
#91 = DIRECTION ( 'NONE',  ( 0.0000000000000000000, 1.000000000000000000, 0.0000000000000000000 ) ) ;
#92 = ORIENTED_EDGE ( 'NONE', *, *, #40, .F. ) ;
#93 = PRODUCT_RELATED_PRODUCT_CATEGORY ( 'detail', '', ( #108 ) ) ;
#94 = AXIS2_PLACEMENT_3D ( 'NONE', #38, #58, #130 ) ;
#95 = DIRECTION ( 'NONE',  ( -3.491481338843133355E-15, 1.224646799147353207E-16, -1.000000000000000000 ) ) ;
#96 = DIRECTION ( 'NONE',  ( 4.275831445896958607E-31, 1.000000000000000000, 1.224646799147353207E-16 ) ) ;
#97 = CARTESIAN_POINT ( 'NONE',  ( 2.408269339474319604E-14, 0.7499999999999963363, 6.897557528611265809 ) ) ;
#98 = PRODUCT_DEFINITION_SHAPE ( 'NONE', 'NONE',  #102 ) ;
#99 = CLOSED_SHELL ( 'NONE', ( #217, #197, #45, #6, #128 ) ) ;
#100 = FACE_OUTER_BOUND ( 'NONE', #138, .T. ) ;
#101 = DIRECTION ( 'NONE',  ( -4.275831445896958607E-31, -1.000000000000000000, -1.224646799147353207E-16 ) ) ;
#102 = PRODUCT_DEFINITION ( 'UNKNOWN', '', #119, #165 ) ;
#103 = CALENDAR_DATE ( 2021, 8, 10 ) ;
#104 = APPROVAL_STATUS ( 'not_yet_approved' ) ;
#105 = APPLICATION_PROTOCOL_DEFINITION ( 'international standard', 'config_control_design', 1994, #37 ) ;
#106 = SHAPE_DEFINITION_REPRESENTATION ( #98, #171 ) ;
#107 = EDGE_CURVE ( 'NONE', #10, #10, #89, .T. ) ;
#108 = PRODUCT ( '957990', '957990', '', ( #29 ) ) ;
#109 = AXIS2_PLACEMENT_3D ( 'NONE', #193, #24, #194 ) ;
#110 = ORIENTED_EDGE ( 'NONE', *, *, #40, .T. ) ;
#111 = DIRECTION ( 'NONE',  ( 0.0000000000000000000, 1.000000000000000000, 0.0000000000000000000 ) ) ;
#112 = CARTESIAN_POINT ( 'NONE',  ( 1.043952920314096810E-13, 0.7499999999999962252, 29.89999999999999858 ) ) ;
#113 = APPLICATION_CONTEXT ( 'configuration controlled 3d designs of mechanical parts and assemblies' ) ;
#114 = PLANE ( 'NONE',  #184 ) ;
#115 = DIRECTION ( 'NONE',  ( -4.275831445896958607E-31, -1.000000000000000000, -1.224646799147353207E-16 ) ) ;
#116 = CIRCLE ( 'NONE', #76, 0.6500000000000000222 ) ;
#117 = VERTEX_POINT ( 'NONE', #112 ) ;
#118 = APPROVAL_DATE_TIME ( #164, #200 ) ;
#119 = PRODUCT_DEFINITION_FORMATION_WITH_SPECIFIED_SOURCE ( 'ANY', '', #108, .NOT_KNOWN. ) ;
#120 = DATE_AND_TIME ( #215, #213 ) ;
#121 = APPROVAL ( #216, 'UNSPECIFIED' ) ;
#122 = DATE_TIME_ROLE ( 'creation_date' ) ;
#123 = APPROVAL_PERSON_ORGANIZATION ( #14, #200, #196 ) ;
#124 = EDGE_CURVE ( 'NONE', #23, #23, #116, .T. ) ;
#125 = ORIENTED_EDGE ( 'NONE', *, *, #16, .T. ) ;
#126 = DIRECTION ( 'NONE',  ( 4.275831445896958607E-31, 1.000000000000000000, 1.224646799147353207E-16 ) ) ;
#127 = ORIENTED_EDGE ( 'NONE', *, *, #192, .T. ) ;
#128 = ADVANCED_FACE ( 'NONE', ( #43 ), #61, .F. ) ;
#129 = PERSON ( 'UNSPECIFIED', 'UNSPECIFIED', 'UNSPECIFIED', ('UNSPECIFIED'), ('UNSPECIFIED'), ('UNSPECIFIED') ) ;
#130 = DIRECTION ( 'NONE',  ( -4.755382578733925310E-31, -1.000000000000000000, -1.338521200599390899E-16 ) ) ;
#131 = CARTESIAN_POINT ( 'NONE',  ( 1.047444401652940007E-13, 4.874219293650981803E-33, 30.00000000000000000 ) ) ;
#132 = AXIS2_PLACEMENT_3D ( 'NONE', #5, #95, #176 ) ;
#133 = COORDINATED_UNIVERSAL_TIME_OFFSET ( 1, 0, .AHEAD. ) ;
#134 = PERSON_AND_ORGANIZATION ( #129, #145 ) ;
#135 = COORDINATED_UNIVERSAL_TIME_OFFSET ( 1, 0, .AHEAD. ) ;
#136 = CONICAL_SURFACE ( 'NONE', #169, 0.7499999999999972244, 0.5235987755982924874 ) ;
#137 = ADVANCED_FACE ( 'NONE', ( #59 ), #114, .T. ) ;
#138 = EDGE_LOOP ( 'NONE', ( #127 ) ) ;
#139 = DIRECTION ( 'NONE',  ( -3.491481338843133355E-15, 1.224646799147353207E-16, -1.000000000000000000 ) ) ;
#140 = DIRECTION ( 'NONE',  ( -3.491481338843133355E-15, 1.224646799147353207E-16, -1.000000000000000000 ) ) ;
#141 = CARTESIAN_POINT ( 'NONE',  ( 0.0000000000000000000, 0.0000000000000000000, 0.0000000000000000000 ) ) ;
#142 =( LENGTH_UNIT ( ) NAMED_UNIT ( * ) SI_UNIT ( .MILLI., .METRE. ) );
#143 = CARTESIAN_POINT ( 'NONE',  ( 2.408269339474319604E-14, -8.447071749348515175E-16, 6.897557528611265809 ) ) ;
#144 = CIRCLE ( 'NONE', #172, 0.7499999999999998890 ) ;
#145 = ORGANIZATION ( 'UNSPECIFIED', 'UNSPECIFIED', '' ) ;
#146 = CARTESIAN_POINT ( 'NONE',  ( 2.199633243471174014E-14, 3.037013559890252350E-33, 6.299999999999999822 ) ) ;
#147 = APPROVAL_PERSON_ORGANIZATION ( #83, #163, #148 ) ;
#148 = APPROVAL_ROLE ( '' ) ;
#149 = UNCERTAINTY_MEASURE_WITH_UNIT (LENGTH_MEASURE( 1.000000000000000082E-05 ), #142, 'distance_accuracy_value', 'NONE');
#150 = PERSON_AND_ORGANIZATION ( #129, #145 ) ;
#151 = CARTESIAN_POINT ( 'NONE',  ( 2.199633243471174014E-14, -7.715274834628325378E-16, 6.299999999999999822 ) ) ;
#152 = ORIENTED_EDGE ( 'NONE', *, *, #124, .T. ) ;
#153 = CC_DESIGN_SECURITY_CLASSIFICATION ( #60, ( #119 ) ) ;
#154 = FACE_OUTER_BOUND ( 'NONE', #55, .T. ) ;
#155 = EDGE_LOOP ( 'NONE', ( #34 ) ) ;
#156 = FACE_BOUND ( 'NONE', #170, .T. ) ;
#157 = CIRCLE ( 'NONE', #208, 0.4050000000000003042 ) ;
#158 = CC_DESIGN_PERSON_AND_ORGANIZATION_ASSIGNMENT ( #134, #67, ( #119 ) ) ;
#159 = DIRECTION ( 'NONE',  ( 3.491481338843133355E-15, -1.224646799147353207E-16, 1.000000000000000000 ) ) ;
#160 = DIRECTION ( 'NONE',  ( -3.491481338843133355E-15, 1.224646799147353207E-16, -1.000000000000000000 ) ) ;
#161 = DIRECTION ( 'NONE',  ( 0.0000000000000000000, 0.0000000000000000000, 1.000000000000000000 ) ) ;
#162 = VERTEX_POINT ( 'NONE', #78 ) ;
#163 = APPROVAL ( #104, 'UNSPECIFIED' ) ;
#164 = DATE_AND_TIME ( #103, #56 ) ;
#165 = DESIGN_CONTEXT ( 'detailed design', #37, 'design' ) ;
#166 = COORDINATED_UNIVERSAL_TIME_OFFSET ( 1, 0, .AHEAD. ) ;
#167 = PERSON_AND_ORGANIZATION ( #129, #145 ) ;
#168 = PERSON_AND_ORGANIZATION_ROLE ( 'classification_officer' ) ;
#169 = AXIS2_PLACEMENT_3D ( 'NONE', #143, #44, #210 ) ;
#170 = EDGE_LOOP ( 'NONE', ( #152 ) ) ;
#171 = ADVANCED_BREP_SHAPE_REPRESENTATION ( '957990', ( #219, #70, #80 ), #209 ) ;
#172 = AXIS2_PLACEMENT_3D ( 'NONE', #223, #139, #111 ) ;
#173 = EDGE_LOOP ( 'NONE', ( #57 ) ) ;
#174 = CIRCLE ( 'NONE', #132, 0.7499999999999972244 ) ;
#175 = ORIENTED_EDGE ( 'NONE', *, *, #212, .F. ) ;
#176 = DIRECTION ( 'NONE',  ( 0.0000000000000000000, 1.000000000000000000, 0.0000000000000000000 ) ) ;
#177 = CC_DESIGN_APPROVAL ( #163, ( #60 ) ) ;
#178 = CARTESIAN_POINT ( 'NONE',  ( 2.199633243471174014E-14, 0.4049999999999995270, 6.299999999999999822 ) ) ;
#179 = CARTESIAN_POINT ( 'NONE',  ( 2.199633243471174014E-14, 0.4049999999999995270, 6.299999999999999822 ) ) ;
#180 = CC_DESIGN_APPROVAL ( #200, ( #119 ) ) ;
#181 =( NAMED_UNIT ( * ) PLANE_ANGLE_UNIT ( ) SI_UNIT ( $, .RADIAN. ) );
#182 = PERSON_AND_ORGANIZATION ( #129, #145 ) ;
#183 = CALENDAR_DATE ( 2021, 8, 10 ) ;
#184 = AXIS2_PLACEMENT_3D ( 'NONE', #81, #211, #115 ) ;
#185 = PERSON_AND_ORGANIZATION ( #129, #145 ) ;
#186 = APPROVAL_PERSON_ORGANIZATION ( #182, #121, #69 ) ;
#187 = CC_DESIGN_PERSON_AND_ORGANIZATION_ASSIGNMENT ( #150, #214, ( #108 ) ) ;
#188 = FACE_OUTER_BOUND ( 'NONE', #19, .T. ) ;
#189 = FACE_OUTER_BOUND ( 'NONE', #155, .T. ) ;
#190 = DIRECTION ( 'NONE',  ( -3.491481338843133355E-15, 1.224646799147353207E-16, -1.000000000000000000 ) ) ;
#191 =( NAMED_UNIT ( * ) SI_UNIT ( $, .STERADIAN. ) SOLID_ANGLE_UNIT ( ) );
#192 = EDGE_CURVE ( 'NONE', #4, #4, #174, .T. ) ;
#193 = CARTESIAN_POINT ( 'NONE',  ( 8.164021147949211391E-16, -2.863553144557275516E-17, 0.2338268590218006149 ) ) ;
#194 = DIRECTION ( 'NONE',  ( 4.755382578733925310E-31, 1.000000000000000000, 1.338521200599390899E-16 ) ) ;
#195 = AXIS2_PLACEMENT_3D ( 'NONE', #131, #39, #96 ) ;
#196 = APPROVAL_ROLE ( '' ) ;
#197 = ADVANCED_FACE ( 'NONE', ( #79, #100 ), #136, .T. ) ;
#198 = COORDINATED_UNIVERSAL_TIME_OFFSET ( 1, 0, .AHEAD. ) ;
#199 = PERSON_AND_ORGANIZATION_ROLE ( 'design_supplier' ) ;
#200 = APPROVAL ( #85, 'UNSPECIFIED' ) ;
#201 = DIRECTION ( 'NONE',  ( -3.491481338843133355E-15, 1.224646799147353207E-16, -1.000000000000000000 ) ) ;
#202 = EDGE_LOOP ( 'NONE', ( #17 ) ) ;
#203 = FACE_OUTER_BOUND ( 'NONE', #173, .T. ) ;
#204 = FACE_OUTER_BOUND ( 'NONE', #90, .T. ) ;
#205 = DIRECTION ( 'NONE',  ( 4.275831445896958607E-31, 1.000000000000000000, 1.224646799147353454E-16 ) ) ;
#206 = CC_DESIGN_PERSON_AND_ORGANIZATION_ASSIGNMENT ( #185, #199, ( #119 ) ) ;
#207 = CARTESIAN_POINT ( 'NONE',  ( 1.047444401652940007E-13, -3.673940397442059178E-15, 30.00000000000000000 ) ) ;
#208 = AXIS2_PLACEMENT_3D ( 'NONE', #54, #190, #91 ) ;
#209 =( GEOMETRIC_REPRESENTATION_CONTEXT ( 3 ) GLOBAL_UNCERTAINTY_ASSIGNED_CONTEXT ( ( #149 ) ) GLOBAL_UNIT_ASSIGNED_CONTEXT ( ( #142, #181, #191 ) ) REPRESENTATION_CONTEXT ( 'NONE', 'WORKASPACE' ) );
#210 = DIRECTION ( 'NONE',  ( 0.0000000000000000000, -1.000000000000000000, 0.0000000000000000000 ) ) ;
#211 = DIRECTION ( 'NONE',  ( 3.491481338843133355E-15, -1.224646799147353207E-16, 1.000000000000000000 ) ) ;
#212 = EDGE_CURVE ( 'NONE', #162, #162, #32, .T. ) ;
#213 = LOCAL_TIME ( 7, 54, 13.00000000000000000, #133 ) ;
#214 = PERSON_AND_ORGANIZATION_ROLE ( 'design_owner' ) ;
#215 = CALENDAR_DATE ( 2021, 8, 10 ) ;
#216 = APPROVAL_STATUS ( 'not_yet_approved' ) ;
#217 = ADVANCED_FACE ( 'NONE', ( #41 ), #20, .F. ) ;
#218 = DATE_AND_TIME ( #27, #3 ) ;
#219 = MANIFOLD_SOLID_BREP ( 'Corps-Déplacer/Copier1[1]', #99 ) ;
#220 = CC_DESIGN_DATE_AND_TIME_ASSIGNMENT ( #120, #122, ( #102 ) ) ;
#221 = CONICAL_SURFACE ( 'NONE', #72, 0.6500000000000000222, 0.7853981633974510546 ) ;
#222 = ORIENTED_EDGE ( 'NONE', *, *, #107, .F. ) ;
#223 = CARTESIAN_POINT ( 'NONE',  ( 1.043952920314096810E-13, -3.661693929450586610E-15, 29.89999999999999858 ) ) ;
ENDSEC;
END-ISO-10303-21;
