ISO-10303-21;
HEADER;
FILE_DESCRIPTION (( 'STEP AP203' ),
    '1' );
FILE_NAME ('957982.step',
    '2023-09-27T05:49:10',
    ( '' ),
    ( '' ),
    'SwSTEP 2.0',
    'SolidWorks 2022',
    '' );
FILE_SCHEMA (( 'CONFIG_CONTROL_DESIGN' ));
ENDSEC;

DATA;
#1 = AXIS2_PLACEMENT_3D ( 'NONE', #347, #25, #210 ) ;
#2 = ORIENTED_EDGE ( 'NONE', *, *, #240, .T. ) ;
#3 = ORIENTED_EDGE ( 'NONE', *, *, #228, .F. ) ;
#4 = CARTESIAN_POINT ( 'NONE',  ( 0.000000000000000000, 0.000000000000000000, 0.000000000000000000 ) ) ;
#5 = APPROVAL_ROLE ( '' ) ;
#6 = EDGE_LOOP ( 'NONE', ( #309 ) ) ;
#7 = AXIS2_PLACEMENT_3D ( 'NONE', #137, #12, #97 ) ;
#8 = DIRECTION ( 'NONE',  ( 1.000000000000000000, 0.000000000000000000, -3.493790784516698624E-15 ) ) ;
#9 = EDGE_CURVE ( 'NONE', #371, #371, #96, .T. ) ;
#10 = ORIENTED_EDGE ( 'NONE', *, *, #9, .F. ) ;
#11 = EDGE_LOOP ( 'NONE', ( #220 ) ) ;
#12 = DIRECTION ( 'NONE',  ( -3.491481338843133355E-15, 0.000000000000000000, -1.000000000000000000 ) ) ;
#13 = FACE_BOUND ( 'NONE', #339, .T. ) ;
#14 = ADVANCED_FACE ( 'NONE', ( #230, #180 ), #142, .T. ) ;
#15 = DIRECTION ( 'NONE',  ( -1.000000000000000000, 0.000000000000000000, 3.491481338843133355E-15 ) ) ;
#16 = AXIS2_PLACEMENT_3D ( 'NONE', #290, #174, #345 ) ;
#17 = DIRECTION ( 'NONE',  ( 3.491481338843133355E-15, -0.000000000000000000, 1.000000000000000000 ) ) ;
#18 = DIRECTION ( 'NONE',  ( 3.491481338843133355E-15, -0.000000000000000000, 1.000000000000000000 ) ) ;
#19 = CARTESIAN_POINT ( 'NONE',  ( 1.990144363140586139E-13, 0.000000000000000000, 57.00000000000000000 ) ) ;
#20 = VERTEX_POINT ( 'NONE', #147 ) ;
#21 = CARTESIAN_POINT ( 'NONE',  ( 2.405000000000001581, 0.000000000000000000, 0.4583333333333230453 ) ) ;
#22 = PRODUCT ( '957982', '957982', '', ( #238 ) ) ;
#23 = CC_DESIGN_PERSON_AND_ORGANIZATION_ASSIGNMENT ( #156, #56, ( #22 ) ) ;
#24 = LOCAL_TIME ( 7, 49, 10.00000000000000000, #160 ) ;
#25 = DIRECTION ( 'NONE',  ( 3.491481338843133355E-15, -0.000000000000000000, 1.000000000000000000 ) ) ;
#26 = ADVANCED_FACE ( 'NONE', ( #106, #53 ), #294, .T. ) ;
#27 =( NAMED_UNIT ( * ) SI_UNIT ( $, .STERADIAN. ) SOLID_ANGLE_UNIT ( ) );
#28 = AXIS2_PLACEMENT_3D ( 'NONE', #246, #134, #372 ) ;
#29 = PERSON_AND_ORGANIZATION_ROLE ( 'creator' ) ;
#30 = EDGE_CURVE ( 'NONE', #293, #293, #214, .T. ) ;
#31 = SECURITY_CLASSIFICATION_LEVEL ( 'unclassified' ) ;
#32 = AXIS2_PLACEMENT_3D ( 'NONE', #356, #148, #268 ) ;
#33 = ORIENTED_EDGE ( 'NONE', *, *, #151, .T. ) ;
#34 = CALENDAR_DATE ( 2023, 27, 9 ) ;
#35 = EDGE_LOOP ( 'NONE', ( #243 ) ) ;
#36 = FACE_OUTER_BOUND ( 'NONE', #6, .T. ) ;
#37 = EDGE_LOOP ( 'NONE', ( #128 ) ) ;
#38 = CARTESIAN_POINT ( 'NONE',  ( 1.990144363140586139E-13, 0.000000000000000000, 57.00000000000000000 ) ) ;
#39 = AXIS2_PLACEMENT_3D ( 'NONE', #168, #278, #8 ) ;
#40 = EDGE_LOOP ( 'NONE', ( #218 ) ) ;
#41 = ADVANCED_FACE ( 'NONE', ( #292, #260 ), #256, .T. ) ;
#42 = ORIENTED_EDGE ( 'NONE', *, *, #9, .T. ) ;
#43 = VERTEX_POINT ( 'NONE', #176 ) ;
#44 = UNCERTAINTY_MEASURE_WITH_UNIT (LENGTH_MEASURE( 1.000000000000000082E-05 ), #59, 'distance_accuracy_value', 'NONE');
#45 = DIRECTION ( 'NONE',  ( 3.491481338843133355E-15, -0.000000000000000000, 1.000000000000000000 ) ) ;
#46 = DIRECTION ( 'NONE',  ( -1.000000000000000000, 0.000000000000000000, 3.471250198810139122E-15 ) ) ;
#47 = FACE_OUTER_BOUND ( 'NONE', #362, .T. ) ;
#48 = CIRCLE ( 'NONE', #39, 2.404999999999999805 ) ;
#49 = DIRECTION ( 'NONE',  ( 1.000000000000000000, 0.000000000000000000, -2.885194970439596430E-15 ) ) ;
#50 = DIRECTION ( 'NONE',  ( 1.000000000000000000, 0.000000000000000000, -3.516331370223257730E-15 ) ) ;
#51 = CALENDAR_DATE ( 2023, 27, 9 ) ;
#52 = ADVANCED_FACE ( 'NONE', ( #183, #116 ), #319, .T. ) ;
#53 = FACE_OUTER_BOUND ( 'NONE', #103, .T. ) ;
#54 = FACE_OUTER_BOUND ( 'NONE', #271, .T. ) ;
#55 = CIRCLE ( 'NONE', #104, 2.999999999999995115 ) ;
#56 = PERSON_AND_ORGANIZATION_ROLE ( 'design_owner' ) ;
#57 = APPROVAL_PERSON_ORGANIZATION ( #65, #216, #158 ) ;
#58 = DIRECTION ( 'NONE',  ( 1.000000000000000000, 0.000000000000000000, -3.796621303815450718E-15 ) ) ;
#59 =( LENGTH_UNIT ( ) NAMED_UNIT ( * ) SI_UNIT ( .MILLI., .METRE. ) );
#60 = APPROVAL_DATE_TIME ( #272, #73 ) ;
#61 = CIRCLE ( 'NONE', #150, 2.404999999999999805 ) ;
#62 = EDGE_CURVE ( 'NONE', #20, #20, #55, .T. ) ;
#63 = COORDINATED_UNIVERSAL_TIME_OFFSET ( 1, 0, .AHEAD. ) ;
#64 = ORIENTED_EDGE ( 'NONE', *, *, #228, .T. ) ;
#65 = PERSON_AND_ORGANIZATION ( #302, #115 ) ;
#66 = ORIENTED_EDGE ( 'NONE', *, *, #282, .F. ) ;
#67 = DIRECTION ( 'NONE',  ( 1.000000000000000000, 0.000000000000000000, -3.471250198810139122E-15 ) ) ;
#68 = PERSON_AND_ORGANIZATION ( #302, #115 ) ;
#69 = ORIENTED_EDGE ( 'NONE', *, *, #178, .F. ) ;
#70 = EDGE_LOOP ( 'NONE', ( #315 ) ) ;
#71 = DIRECTION ( 'NONE',  ( 1.000000000000000000, 0.000000000000000000, -3.440688056582752238E-15 ) ) ;
#72 = EDGE_LOOP ( 'NONE', ( #364 ) ) ;
#73 = APPROVAL ( #130, 'UNSPECIFIED' ) ;
#74 = DIRECTION ( 'NONE',  ( 1.000000000000000000, 0.000000000000000000, -2.885194970439596430E-15 ) ) ;
#75 = CC_DESIGN_SECURITY_CLASSIFICATION ( #257, ( #208 ) ) ;
#76 = EDGE_LOOP ( 'NONE', ( #227 ) ) ;
#77 = DIRECTION ( 'NONE',  ( 1.000000000000000000, 0.000000000000000000, -3.491481338843133750E-15 ) ) ;
#78 = DIRECTION ( 'NONE',  ( 3.491481338843133355E-15, -0.000000000000000000, 1.000000000000000000 ) ) ;
#79 = CARTESIAN_POINT ( 'NONE',  ( 5.382700397383176807E-15, 0.000000000000000000, 1.541666666666670293 ) ) ;
#80 = CYLINDRICAL_SURFACE ( 'NONE', #353, 2.404999999999999805 ) ;
#81 = AXIS2_PLACEMENT_3D ( 'NONE', #287, #17, #258 ) ;
#82 = DIRECTION ( 'NONE',  ( -3.491481338843133355E-15, 0.000000000000000000, -1.000000000000000000 ) ) ;
#83 = CC_DESIGN_DATE_AND_TIME_ASSIGNMENT ( #367, #299, ( #300 ) ) ;
#84 = DIRECTION ( 'NONE',  ( 3.491481338843133355E-15, -0.000000000000000000, 1.000000000000000000 ) ) ;
#85 = ADVANCED_FACE ( 'NONE', ( #13, #146 ), #194, .T. ) ;
#86 = CIRCLE ( 'NONE', #279, 1.827649730810370965 ) ;
#87 = CARTESIAN_POINT ( 'NONE',  ( 1.649074173710977087, 0.000000000000000000, 14.05881904510250635 ) ) ;
#88 = AXIS2_PLACEMENT_3D ( 'NONE', #201, #236, #187 ) ;
#89 = APPROVAL_ROLE ( '' ) ;
#90 = VERTEX_POINT ( 'NONE', #387 ) ;
#91 = EDGE_LOOP ( 'NONE', ( #64 ) ) ;
#92 = CARTESIAN_POINT ( 'NONE',  ( 3.927916506198528969E-15, 0.000000000000000000, 1.125000000000000888 ) ) ;
#93 = EDGE_CURVE ( 'NONE', #261, #261, #86, .T. ) ;
#94 = CALENDAR_DATE ( 2023, 27, 9 ) ;
#95 = EDGE_LOOP ( 'NONE', ( #164 ) ) ;
#96 = CIRCLE ( 'NONE', #170, 1.827649730810370965 ) ;
#97 = DIRECTION ( 'NONE',  ( -1.000000000000000000, 0.000000000000000000, 3.491481338843133355E-15 ) ) ;
#98 = ORIENTED_EDGE ( 'NONE', *, *, #161, .T. ) ;
#99 = DIRECTION ( 'NONE',  ( 3.491481338843133355E-15, -0.000000000000000000, 1.000000000000000000 ) ) ;
#100 = EDGE_LOOP ( 'NONE', ( #197 ) ) ;
#101 = EDGE_CURVE ( 'NONE', #143, #143, #126, .T. ) ;
#102 = DIRECTION ( 'NONE',  ( 3.491481338843133355E-15, -0.000000000000000000, 1.000000000000000000 ) ) ;
#103 = EDGE_LOOP ( 'NONE', ( #98 ) ) ;
#104 = AXIS2_PLACEMENT_3D ( 'NONE', #237, #175, #354 ) ;
#105 = FACE_OUTER_BOUND ( 'NONE', #307, .T. ) ;
#106 = FACE_OUTER_BOUND ( 'NONE', #173, .T. ) ;
#107 = DIRECTION ( 'NONE',  ( 3.491481338843133355E-15, -0.000000000000000000, 1.000000000000000000 ) ) ;
#108 = DIRECTION ( 'NONE',  ( 1.000000000000000000, 0.000000000000000000, -3.500010264454868914E-15 ) ) ;
#109 = CARTESIAN_POINT ( 'NONE',  ( 3.000000000000067057, 0.000000000000000000, 19.10054286607042684 ) ) ;
#110 = ADVANCED_BREP_SHAPE_REPRESENTATION ( '957982', ( #154, #32 ), #215 ) ;
#111 = FACE_OUTER_BOUND ( 'NONE', #335, .T. ) ;
#112 = CARTESIAN_POINT ( 'NONE',  ( 1.891219058540040297E-15, 0.000000000000000000, 0.5416666666666694052 ) ) ;
#113 = CONICAL_SURFACE ( 'NONE', #329, 1.827649730810370965, 1.047197551196602738 ) ;
#114 = APPLICATION_CONTEXT ( 'configuration controlled 3d designs of mechanical parts and assemblies' ) ;
#115 = ORGANIZATION ( 'UNSPECIFIED', 'UNSPECIFIED', '' ) ;
#116 = FACE_OUTER_BOUND ( 'NONE', #305, .T. ) ;
#117 = CARTESIAN_POINT ( 'NONE',  ( 2.405000000000005134, 0.000000000000000000, 1.458333333333323933 ) ) ;
#118 = PLANE ( 'NONE',  #241 ) ;
#119 = VERTEX_POINT ( 'NONE', #326 ) ;
#120 = ADVANCED_FACE ( 'NONE', ( #285 ), #376, .F. ) ;
#121 = TOROIDAL_SURFACE ( 'NONE', #189, 2.614999999999998437, 1.000000000000000000 ) ;
#122 = CC_DESIGN_APPROVAL ( #73, ( #257 ) ) ;
#123 = PERSON_AND_ORGANIZATION ( #302, #115 ) ;
#124 = COORDINATED_UNIVERSAL_TIME_OFFSET ( 1, 0, .AHEAD. ) ;
#125 = PERSON_AND_ORGANIZATION ( #302, #115 ) ;
#126 = CIRCLE ( 'NONE', #342, 2.404999999999999805 ) ;
#127 = PERSON_AND_ORGANIZATION_ROLE ( 'design_supplier' ) ;
#128 = ORIENTED_EDGE ( 'NONE', *, *, #320, .T. ) ;
#129 = FACE_OUTER_BOUND ( 'NONE', #11, .T. ) ;
#130 = APPROVAL_STATUS ( 'not_yet_approved' ) ;
#131 = ORIENTED_EDGE ( 'NONE', *, *, #274, .F. ) ;
#132 = DESIGN_CONTEXT ( 'detailed design', #114, 'design' ) ;
#133 = EDGE_LOOP ( 'NONE', ( #273 ) ) ;
#134 = DIRECTION ( 'NONE',  ( 3.491481338843133355E-15, -0.000000000000000000, 1.000000000000000000 ) ) ;
#135 = ORIENTED_EDGE ( 'NONE', *, *, #320, .F. ) ;
#136 = CARTESIAN_POINT ( 'NONE',  ( 1.615000000000046620, 0.000000000000000000, 13.79999999999999538 ) ) ;
#137 = CARTESIAN_POINT ( 'NONE',  ( 6.982962677686266711E-15, 1.827649730810370965, 2.000000000000000000 ) ) ;
#138 = DIRECTION ( 'NONE',  ( 1.000000000000000000, 0.000000000000000000, -3.559332472326984802E-15 ) ) ;
#139 = CIRCLE ( 'NONE', #16, 3.000000000000000000 ) ;
#140 = CARTESIAN_POINT ( 'NONE',  ( 1.990144363140586139E-13, 2.399999999999996803, 57.00000000000000000 ) ) ;
#141 = CIRCLE ( 'NONE', #1, 1.649074173710928237 ) ;
#142 = CYLINDRICAL_SURFACE ( 'NONE', #288, 1.827649730810370965 ) ;
#143 = VERTEX_POINT ( 'NONE', #117 ) ;
#144 = CC_DESIGN_DATE_AND_TIME_ASSIGNMENT ( #333, #166, ( #257 ) ) ;
#145 = DIRECTION ( 'NONE',  ( 1.000000000000000000, 0.000000000000000000, -3.796621303815450718E-15 ) ) ;
#146 = FACE_OUTER_BOUND ( 'NONE', #133, .T. ) ;
#147 = CARTESIAN_POINT ( 'NONE',  ( 3.000000000000192291, 0.000000000000000000, 56.39999999999998437 ) ) ;
#148 = DIRECTION ( 'NONE',  ( 0.000000000000000000, 0.000000000000000000, 1.000000000000000000 ) ) ;
#149 = CARTESIAN_POINT ( 'NONE',  ( 1.990144363140586139E-13, 0.000000000000000000, 57.00000000000000000 ) ) ;
#150 = AXIS2_PLACEMENT_3D ( 'NONE', #375, #45, #67 ) ;
#151 = EDGE_CURVE ( 'NONE', #379, #379, #248, .T. ) ;
#152 = FACE_OUTER_BOUND ( 'NONE', #225, .T. ) ;
#153 = VERTEX_POINT ( 'NONE', #262 ) ;
#154 = MANIFOLD_SOLID_BREP ( 'Corps-Déplacer/Copier1', #395 ) ;
#155 = AXIS2_PLACEMENT_3D ( 'NONE', #112, #82, #46 ) ;
#156 = PERSON_AND_ORGANIZATION ( #302, #115 ) ;
#157 = ADVANCED_FACE ( 'NONE', ( #179, #349 ), #80, .T. ) ;
#158 = APPROVAL_ROLE ( '' ) ;
#159 = PERSON_AND_ORGANIZATION_ROLE ( 'creator' ) ;
#160 = COORDINATED_UNIVERSAL_TIME_OFFSET ( 1, 0, .AHEAD. ) ;
#161 = EDGE_CURVE ( 'NONE', #295, #295, #139, .T. ) ;
#162 = CC_DESIGN_APPROVAL ( #328, ( #300 ) ) ;
#163 = COORDINATED_UNIVERSAL_TIME_OFFSET ( 1, 0, .AHEAD. ) ;
#164 = ORIENTED_EDGE ( 'NONE', *, *, #30, .F. ) ;
#165 = FACE_BOUND ( 'NONE', #196, .T. ) ;
#166 = DATE_TIME_ROLE ( 'classification_date' ) ;
#167 = EDGE_LOOP ( 'NONE', ( #222 ) ) ;
#168 = CARTESIAN_POINT ( 'NONE',  ( 1.600262280303096214E-15, 0.000000000000000000, 0.4583333333333314275 ) ) ;
#169 = DIRECTION ( 'NONE',  ( 3.491481338843133355E-15, -0.000000000000000000, 1.000000000000000000 ) ) ;
#170 = AXIS2_PLACEMENT_3D ( 'NONE', #249, #169, #280 ) ;
#171 = AXIS2_PLACEMENT_3D ( 'NONE', #38, #281, #74 ) ;
#172 = FACE_OUTER_BOUND ( 'NONE', #35, .T. ) ;
#173 = EDGE_LOOP ( 'NONE', ( #334 ) ) ;
#174 = DIRECTION ( 'NONE',  ( 3.491481338843133355E-15, -0.000000000000000000, 1.000000000000000000 ) ) ;
#175 = DIRECTION ( 'NONE',  ( 3.491481338843133355E-15, -0.000000000000000000, 1.000000000000000000 ) ) ;
#176 = CARTESIAN_POINT ( 'NONE',  ( 2.405000000000001581, 0.000000000000000000, 0.5416666666666610785 ) ) ;
#177 = DIRECTION ( 'NONE',  ( 3.491481338843133355E-15, -0.000000000000000000, 1.000000000000000000 ) ) ;
#178 = EDGE_CURVE ( 'NONE', #350, #350, #359, .T. ) ;
#179 = FACE_OUTER_BOUND ( 'NONE', #70, .T. ) ;
#180 = FACE_OUTER_BOUND ( 'NONE', #373, .T. ) ;
#181 = DIRECTION ( 'NONE',  ( 3.491481338843133355E-15, -0.000000000000000000, 1.000000000000000000 ) ) ;
#182 = ADVANCED_FACE ( 'NONE', ( #229, #219 ), #234, .T. ) ;
#183 = FACE_BOUND ( 'NONE', #95, .T. ) ;
#184 = VERTEX_POINT ( 'NONE', #87 ) ;
#185 = DIRECTION ( 'NONE',  ( -3.491481338843133355E-15, 0.000000000000000000, -1.000000000000000000 ) ) ;
#186 = AXIS2_PLACEMENT_3D ( 'NONE', #205, #233, #346 ) ;
#187 = DIRECTION ( 'NONE',  ( 1.000000000000000000, 0.000000000000000000, -2.891205793294682172E-15 ) ) ;
#188 = CC_DESIGN_PERSON_AND_ORGANIZATION_ASSIGNMENT ( #68, #29, ( #208 ) ) ;
#189 = AXIS2_PLACEMENT_3D ( 'NONE', #275, #224, #365 ) ;
#190 = AXIS2_PLACEMENT_3D ( 'NONE', #149, #265, #58 ) ;
#191 = DATE_AND_TIME ( #51, #360 ) ;
#192 = APPROVAL_STATUS ( 'not_yet_approved' ) ;
#193 = PERSON_AND_ORGANIZATION_ROLE ( 'classification_officer' ) ;
#194 = CONICAL_SURFACE ( 'NONE', #327, 2.999999999999995115, 0.7853981633974442822 ) ;
#195 = DATE_AND_TIME ( #34, #298 ) ;
#196 = EDGE_LOOP ( 'NONE', ( #370 ) ) ;
#197 = ORIENTED_EDGE ( 'NONE', *, *, #101, .T. ) ;
#198 = ORIENTED_EDGE ( 'NONE', *, *, #93, .F. ) ;
#199 = FACE_OUTER_BOUND ( 'NONE', #76, .T. ) ;
#200 = CIRCLE ( 'NONE', #88, 2.399999999999996803 ) ;
#201 = CARTESIAN_POINT ( 'NONE',  ( 1.990144363140586139E-13, 0.000000000000000000, 57.00000000000000000 ) ) ;
#202 = EDGE_LOOP ( 'NONE', ( #10 ) ) ;
#203 = FACE_BOUND ( 'NONE', #91, .T. ) ;
#204 = ADVANCED_FACE ( 'NONE', ( #254, #172 ), #121, .F. ) ;
#205 = CARTESIAN_POINT ( 'NONE',  ( 1.990144363140586139E-13, 0.000000000000000000, 57.00000000000000000 ) ) ;
#206 = CARTESIAN_POINT ( 'NONE',  ( 1.990144363140586139E-13, 0.000000000000000000, 57.00000000000000000 ) ) ;
#207 = AXIS2_PLACEMENT_3D ( 'NONE', #378, #232, #380 ) ;
#208 = PRODUCT_DEFINITION_FORMATION_WITH_SPECIFIED_SOURCE ( 'ANY', '', #22, .NOT_KNOWN. ) ;
#209 = CARTESIAN_POINT ( 'NONE',  ( 1.969195475107527212E-13, 0.000000000000000000, 56.39999999999999858 ) ) ;
#210 = DIRECTION ( 'NONE',  ( 1.000000000000000000, 0.000000000000000000, -3.155813432102586540E-15 ) ) ;
#211 = DIRECTION ( 'NONE',  ( -3.491481338843133355E-15, 0.000000000000000000, -1.000000000000000000 ) ) ;
#212 = AXIS2_PLACEMENT_3D ( 'NONE', #369, #99, #226 ) ;
#213 = ADVANCED_FACE ( 'NONE', ( #314, #36 ), #338, .F. ) ;
#214 = CIRCLE ( 'NONE', #383, 1.827649730810370965 ) ;
#215 =( GEOMETRIC_REPRESENTATION_CONTEXT ( 3 ) GLOBAL_UNCERTAINTY_ASSIGNED_CONTEXT ( ( #44 ) ) GLOBAL_UNIT_ASSIGNED_CONTEXT ( ( #59, #269, #27 ) ) REPRESENTATION_CONTEXT ( 'NONE', 'WORKASPACE' ) );
#216 = APPROVAL ( #192, 'UNSPECIFIED' ) ;
#217 = COORDINATED_UNIVERSAL_TIME_OFFSET ( 1, 0, .AHEAD. ) ;
#218 = ORIENTED_EDGE ( 'NONE', *, *, #274, .T. ) ;
#219 = FACE_BOUND ( 'NONE', #250, .T. ) ;
#220 = ORIENTED_EDGE ( 'NONE', *, *, #101, .F. ) ;
#221 = DIRECTION ( 'NONE',  ( 3.491481338843133355E-15, -0.000000000000000000, 1.000000000000000000 ) ) ;
#222 = ORIENTED_EDGE ( 'NONE', *, *, #161, .F. ) ;
#223 = ADVANCED_FACE ( 'NONE', ( #129, #165 ), #113, .T. ) ;
#224 = DIRECTION ( 'NONE',  ( 3.491481338843133355E-15, -0.000000000000000000, 1.000000000000000000 ) ) ;
#225 = EDGE_LOOP ( 'NONE', ( #33 ) ) ;
#226 = DIRECTION ( 'NONE',  ( 1.000000000000000000, 0.000000000000000000, -3.440688056582752238E-15 ) ) ;
#227 = ORIENTED_EDGE ( 'NONE', *, *, #240, .F. ) ;
#228 = EDGE_CURVE ( 'NONE', #253, #253, #311, .T. ) ;
#229 = FACE_OUTER_BOUND ( 'NONE', #167, .T. ) ;
#230 = FACE_OUTER_BOUND ( 'NONE', #245, .T. ) ;
#231 = FACE_OUTER_BOUND ( 'NONE', #37, .T. ) ;
#232 = DIRECTION ( 'NONE',  ( 3.491481338843133355E-15, -0.000000000000000000, 1.000000000000000000 ) ) ;
#233 = DIRECTION ( 'NONE',  ( 3.491481338843133355E-15, -0.000000000000000000, 1.000000000000000000 ) ) ;
#234 = CONICAL_SURFACE ( 'NONE', #28, 1.649074173710928237, 0.2617993877991424689 ) ;
#235 = CIRCLE ( 'NONE', #377, 2.404999999999999805 ) ;
#236 = DIRECTION ( 'NONE',  ( 3.491481338843133355E-15, -0.000000000000000000, 1.000000000000000000 ) ) ;
#237 = CARTESIAN_POINT ( 'NONE',  ( 1.969195475107527212E-13, 0.000000000000000000, 56.39999999999999858 ) ) ;
#238 = MECHANICAL_CONTEXT ( 'NONE', #322, 'mechanical' ) ;
#239 = APPROVAL_STATUS ( 'not_yet_approved' ) ;
#240 = EDGE_CURVE ( 'NONE', #43, #43, #61, .T. ) ;
#241 = AXIS2_PLACEMENT_3D ( 'NONE', #140, #185, #15 ) ;
#242 = PERSON_AND_ORGANIZATION ( #302, #115 ) ;
#243 = ORIENTED_EDGE ( 'NONE', *, *, #178, .T. ) ;
#244 = DIRECTION ( 'NONE',  ( 1.000000000000000000, 0.000000000000000000, -3.222396549802121629E-15 ) ) ;
#245 = EDGE_LOOP ( 'NONE', ( #198 ) ) ;
#246 = CARTESIAN_POINT ( 'NONE',  ( 4.908610434214785982E-14, 0.000000000000000000, 14.05881904510251168 ) ) ;
#247 = CC_DESIGN_PERSON_AND_ORGANIZATION_ASSIGNMENT ( #125, #159, ( #300 ) ) ;
#248 = CIRCLE ( 'NONE', #207, 1.614999999999999991 ) ;
#249 = CARTESIAN_POINT ( 'NONE',  ( 6.546527510330881352E-15, 0.000000000000000000, 1.875000000000001776 ) ) ;
#250 = EDGE_LOOP ( 'NONE', ( #252 ) ) ;
#251 = DIRECTION ( 'NONE',  ( 3.491481338843133355E-15, -0.000000000000000000, 1.000000000000000000 ) ) ;
#252 = ORIENTED_EDGE ( 'NONE', *, *, #391, .T. ) ;
#253 = VERTEX_POINT ( 'NONE', #374 ) ;
#254 = FACE_OUTER_BOUND ( 'NONE', #72, .T. ) ;
#255 = CARTESIAN_POINT ( 'NONE',  ( 5.091743619146232725E-15, 0.000000000000000000, 1.458333333333332371 ) ) ;
#256 = CONICAL_SURFACE ( 'NONE', #389, 2.404999999999999805, 1.047197551196602738 ) ;
#257 = SECURITY_CLASSIFICATION ( '', '', #31 ) ;
#258 = DIRECTION ( 'NONE',  ( 1.000000000000000000, 0.000000000000000000, -3.491481338843133355E-15 ) ) ;
#259 = CARTESIAN_POINT ( 'NONE',  ( 5.382700397383176807E-15, 0.000000000000000000, 1.541666666666670293 ) ) ;
#260 = FACE_OUTER_BOUND ( 'NONE', #368, .T. ) ;
#261 = VERTEX_POINT ( 'NONE', #384 ) ;
#262 = CARTESIAN_POINT ( 'NONE',  ( 2.400000000000195755, 0.000000000000000000, 56.99999999999999289 ) ) ;
#263 = AXIS2_PLACEMENT_3D ( 'NONE', #4, #221, #77 ) ;
#264 = DIRECTION ( 'NONE',  ( 1.000000000000000000, 0.000000000000000000, -3.516331370223257730E-15 ) ) ;
#265 = DIRECTION ( 'NONE',  ( 3.491481338843133355E-15, -0.000000000000000000, 1.000000000000000000 ) ) ;
#266 = APPLICATION_PROTOCOL_DEFINITION ( 'international standard', 'config_control_design', 1994, #114 ) ;
#267 = ADVANCED_FACE ( 'NONE', ( #105, #203 ), #304, .T. ) ;
#268 = DIRECTION ( 'NONE',  ( 1.000000000000000000, 0.000000000000000000, 0.000000000000000000 ) ) ;
#269 =( NAMED_UNIT ( * ) PLANE_ANGLE_UNIT ( ) SI_UNIT ( $, .RADIAN. ) );
#270 = SHAPE_DEFINITION_REPRESENTATION ( #392, #110 ) ;
#271 = EDGE_LOOP ( 'NONE', ( #69 ) ) ;
#272 = DATE_AND_TIME ( #361, #24 ) ;
#273 = ORIENTED_EDGE ( 'NONE', *, *, #62, .T. ) ;
#274 = EDGE_CURVE ( 'NONE', #286, #286, #48, .T. ) ;
#275 = CARTESIAN_POINT ( 'NONE',  ( 4.818244247603524030E-14, 0.000000000000000000, 13.80000000000000071 ) ) ;
#276 = APPROVAL_DATE_TIME ( #195, #216 ) ;
#277 = EDGE_LOOP ( 'NONE', ( #3 ) ) ;
#278 = DIRECTION ( 'NONE',  ( 3.491481338843133355E-15, -0.000000000000000000, 1.000000000000000000 ) ) ;
#279 = AXIS2_PLACEMENT_3D ( 'NONE', #317, #18, #138 ) ;
#280 = DIRECTION ( 'NONE',  ( 1.000000000000000000, 0.000000000000000000, -3.440688056582752238E-15 ) ) ;
#281 = DIRECTION ( 'NONE',  ( 3.491481338843133355E-15, -0.000000000000000000, 1.000000000000000000 ) ) ;
#282 = EDGE_CURVE ( 'NONE', #90, #90, #385, .T. ) ;
#283 = ORIENTED_EDGE ( 'NONE', *, *, #340, .T. ) ;
#284 = CARTESIAN_POINT ( 'NONE',  ( 4.818244247603523399E-14, 0.000000000000000000, 13.79999999999999893 ) ) ;
#285 = FACE_OUTER_BOUND ( 'NONE', #277, .T. ) ;
#286 = VERTEX_POINT ( 'NONE', #21 ) ;
#287 = CARTESIAN_POINT ( 'NONE',  ( 1.930235225912221493E-33, 0.000000000000000000, 5.528413411345297886E-19 ) ) ;
#288 = AXIS2_PLACEMENT_3D ( 'NONE', #19, #84, #145 ) ;
#289 = APPROVAL_PERSON_ORGANIZATION ( #363, #73, #5 ) ;
#290 = CARTESIAN_POINT ( 'NONE',  ( 6.668918897865826302E-14, 0.000000000000000000, 19.10054286607043394 ) ) ;
#291 = DIRECTION ( 'NONE',  ( 1.000000000000000000, 0.000000000000000000, -4.296528733069493139E-15 ) ) ;
#292 = FACE_BOUND ( 'NONE', #202, .T. ) ;
#293 = VERTEX_POINT ( 'NONE', #316 ) ;
#294 = CYLINDRICAL_SURFACE ( 'NONE', #186, 2.999999999999997335 ) ;
#295 = VERTEX_POINT ( 'NONE', #109 ) ;
#296 = ADVANCED_FACE ( 'NONE', ( #199, #341 ), #310, .T. ) ;
#297 = AXIS2_PLACEMENT_3D ( 'NONE', #284, #306, #244 ) ;
#298 = LOCAL_TIME ( 7, 49, 10.00000000000000000, #217 ) ;
#299 = DATE_TIME_ROLE ( 'creation_date' ) ;
#300 = PRODUCT_DEFINITION ( 'UNKNOWN', '', #208, #132 ) ;
#301 = CALENDAR_DATE ( 2023, 27, 9 ) ;
#302 = PERSON ( 'UNSPECIFIED', 'UNSPECIFIED', 'UNSPECIFIED', ('UNSPECIFIED'), ('UNSPECIFIED'), ('UNSPECIFIED') ) ;
#303 = LOCAL_TIME ( 7, 49, 10.00000000000000000, #63 ) ;
#304 = CONICAL_SURFACE ( 'NONE', #330, 1.611143379864261593, 1.047197551196601184 ) ;
#305 = EDGE_LOOP ( 'NONE', ( #2 ) ) ;
#306 = DIRECTION ( 'NONE',  ( 3.491481338843133355E-15, -0.000000000000000000, 1.000000000000000000 ) ) ;
#307 = EDGE_LOOP ( 'NONE', ( #131 ) ) ;
#308 = DIRECTION ( 'NONE',  ( 1.000000000000000000, 0.000000000000000000, -3.491481338843133750E-15 ) ) ;
#309 = ORIENTED_EDGE ( 'NONE', *, *, #93, .T. ) ;
#310 = CYLINDRICAL_SURFACE ( 'NONE', #171, 2.404999999999999805 ) ;
#311 = CIRCLE ( 'NONE', #263, 1.611143379864261593 ) ;
#312 = ORIENTED_EDGE ( 'NONE', *, *, #30, .T. ) ;
#313 = APPROVAL_PERSON_ORGANIZATION ( #123, #328, #89 ) ;
#314 = FACE_BOUND ( 'NONE', #343, .T. ) ;
#315 = ORIENTED_EDGE ( 'NONE', *, *, #340, .F. ) ;
#316 = CARTESIAN_POINT ( 'NONE',  ( 1.827649730810374074, 0.000000000000000000, 0.8749999999999943379 ) ) ;
#317 = CARTESIAN_POINT ( 'NONE',  ( 6.982962677686273021E-15, 0.000000000000000000, 2.000000000000001776 ) ) ;
#318 = DIRECTION ( 'NONE',  ( 3.491481338843133355E-15, -0.000000000000000000, 1.000000000000000000 ) ) ;
#319 = CONICAL_SURFACE ( 'NONE', #155, 2.404999999999999805, 1.047197551196602738 ) ;
#320 = EDGE_CURVE ( 'NONE', #153, #153, #200, .T. ) ;
#321 = CYLINDRICAL_SURFACE ( 'NONE', #366, 1.614999999999999325 ) ;
#322 = APPLICATION_CONTEXT ( 'configuration controlled 3d designs of mechanical parts and assemblies' ) ;
#323 = CARTESIAN_POINT ( 'NONE',  ( 3.055046171487744447E-15, 0.000000000000000000, 0.8750000000000007772 ) ) ;
#324 = DIRECTION ( 'NONE',  ( -1.000000000000000000, 0.000000000000000000, 4.625929269271493211E-15 ) ) ;
#325 = CARTESIAN_POINT ( 'NONE',  ( 1.615000000000006875, 0.000000000000000000, 1.999999999999996225 ) ) ;
#326 = CARTESIAN_POINT ( 'NONE',  ( 2.405000000000005134, 0.000000000000000000, 1.541666666666661856 ) ) ;
#327 = AXIS2_PLACEMENT_3D ( 'NONE', #209, #211, #324 ) ;
#328 = APPROVAL ( #239, 'UNSPECIFIED' ) ;
#329 = AXIS2_PLACEMENT_3D ( 'NONE', #92, #102, #71 ) ;
#330 = AXIS2_PLACEMENT_3D ( 'NONE', #336, #251, #308 ) ;
#331 = APPROVAL_DATE_TIME ( #191, #328 ) ;
#332 = CC_DESIGN_PERSON_AND_ORGANIZATION_ASSIGNMENT ( #242, #193, ( #257 ) ) ;
#333 = DATE_AND_TIME ( #301, #344 ) ;
#334 = ORIENTED_EDGE ( 'NONE', *, *, #62, .F. ) ;
#335 = EDGE_LOOP ( 'NONE', ( #312 ) ) ;
#336 = CARTESIAN_POINT ( 'NONE',  ( 0.000000000000000000, 0.000000000000000000, 0.000000000000000000 ) ) ;
#337 = ORIENTED_EDGE ( 'NONE', *, *, #151, .F. ) ;
#338 = PLANE ( 'NONE',  #7 ) ;
#339 = EDGE_LOOP ( 'NONE', ( #135 ) ) ;
#340 = EDGE_CURVE ( 'NONE', #119, #119, #235, .T. ) ;
#341 = FACE_OUTER_BOUND ( 'NONE', #40, .T. ) ;
#342 = AXIS2_PLACEMENT_3D ( 'NONE', #255, #177, #50 ) ;
#343 = EDGE_LOOP ( 'NONE', ( #337 ) ) ;
#344 = LOCAL_TIME ( 7, 49, 10.00000000000000000, #163 ) ;
#345 = DIRECTION ( 'NONE',  ( 1.000000000000000000, 0.000000000000000000, -3.469446951953614189E-15 ) ) ;
#346 = DIRECTION ( 'NONE',  ( 1.000000000000000000, 0.000000000000000000, -4.625929269271490055E-15 ) ) ;
#347 = CARTESIAN_POINT ( 'NONE',  ( 4.908610434214785982E-14, 0.000000000000000000, 14.05881904510251168 ) ) ;
#348 = ADVANCED_FACE ( 'NONE', ( #47, #111 ), #351, .T. ) ;
#349 = FACE_OUTER_BOUND ( 'NONE', #100, .T. ) ;
#350 = VERTEX_POINT ( 'NONE', #136 ) ;
#351 = CYLINDRICAL_SURFACE ( 'NONE', #190, 1.827649730810370965 ) ;
#352 = DIRECTION ( 'NONE',  ( -3.491481338843133355E-15, 0.000000000000000000, -1.000000000000000000 ) ) ;
#353 = AXIS2_PLACEMENT_3D ( 'NONE', #206, #318, #49 ) ;
#354 = DIRECTION ( 'NONE',  ( 1.000000000000000000, 0.000000000000000000, -4.625929269271493211E-15 ) ) ;
#355 = CARTESIAN_POINT ( 'NONE',  ( 1.827649730810377404, 0.000000000000000000, 1.874999999999995337 ) ) ;
#356 = CARTESIAN_POINT ( 'NONE',  ( 0.000000000000000000, 0.000000000000000000, 0.000000000000000000 ) ) ;
#357 = ADVANCED_FACE ( 'NONE', ( #54, #152 ), #321, .T. ) ;
#358 = ADVANCED_FACE ( 'NONE', ( #231 ), #118, .F. ) ;
#359 = CIRCLE ( 'NONE', #297, 1.614999999999998437 ) ;
#360 = LOCAL_TIME ( 7, 49, 10.00000000000000000, #124 ) ;
#361 = CALENDAR_DATE ( 2023, 27, 9 ) ;
#362 = EDGE_LOOP ( 'NONE', ( #66 ) ) ;
#363 = PERSON_AND_ORGANIZATION ( #302, #115 ) ;
#364 = ORIENTED_EDGE ( 'NONE', *, *, #391, .F. ) ;
#365 = DIRECTION ( 'NONE',  ( 1.000000000000000000, 0.000000000000000000, -3.491481338843133355E-15 ) ) ;
#366 = AXIS2_PLACEMENT_3D ( 'NONE', #386, #181, #291 ) ;
#367 = DATE_AND_TIME ( #94, #303 ) ;
#368 = EDGE_LOOP ( 'NONE', ( #283 ) ) ;
#369 = CARTESIAN_POINT ( 'NONE',  ( 3.927916506198528969E-15, 0.000000000000000000, 1.125000000000000888 ) ) ;
#370 = ORIENTED_EDGE ( 'NONE', *, *, #282, .T. ) ;
#371 = VERTEX_POINT ( 'NONE', #355 ) ;
#372 = DIRECTION ( 'NONE',  ( 1.000000000000000000, 0.000000000000000000, -3.155813432102586540E-15 ) ) ;
#373 = EDGE_LOOP ( 'NONE', ( #42 ) ) ;
#374 = CARTESIAN_POINT ( 'NONE',  ( 1.611143379864261593, 0.000000000000000000, -5.625277044996723377E-15 ) ) ;
#375 = CARTESIAN_POINT ( 'NONE',  ( 1.891219058540040297E-15, 0.000000000000000000, 0.5416666666666694052 ) ) ;
#376 = PLANE ( 'NONE',  #81 ) ;
#377 = AXIS2_PLACEMENT_3D ( 'NONE', #79, #107, #264 ) ;
#378 = CARTESIAN_POINT ( 'NONE',  ( 6.982962677686273021E-15, 0.000000000000000000, 2.000000000000001776 ) ) ;
#379 = VERTEX_POINT ( 'NONE', #325 ) ;
#380 = DIRECTION ( 'NONE',  ( 1.000000000000000000, 0.000000000000000000, -3.490929595618961745E-15 ) ) ;
#381 = DIRECTION ( 'NONE',  ( -1.000000000000000000, 0.000000000000000000, 3.516331370223257730E-15 ) ) ;
#382 = CC_DESIGN_PERSON_AND_ORGANIZATION_ASSIGNMENT ( #393, #127, ( #208 ) ) ;
#383 = AXIS2_PLACEMENT_3D ( 'NONE', #323, #78, #108 ) ;
#384 = CARTESIAN_POINT ( 'NONE',  ( 1.827649730810377848, 0.000000000000000000, 1.999999999999995337 ) ) ;
#385 = CIRCLE ( 'NONE', #212, 1.827649730810370965 ) ;
#386 = CARTESIAN_POINT ( 'NONE',  ( 1.990144363140586139E-13, 0.000000000000000000, 57.00000000000000000 ) ) ;
#387 = CARTESIAN_POINT ( 'NONE',  ( 1.827649730810374962, 0.000000000000000000, 1.124999999999994671 ) ) ;
#388 = APPLICATION_PROTOCOL_DEFINITION ( 'international standard', 'config_control_design', 1994, #322 ) ;
#389 = AXIS2_PLACEMENT_3D ( 'NONE', #259, #352, #381 ) ;
#390 = CC_DESIGN_APPROVAL ( #216, ( #208 ) ) ;
#391 = EDGE_CURVE ( 'NONE', #184, #184, #141, .T. ) ;
#392 = PRODUCT_DEFINITION_SHAPE ( 'NONE', 'NONE',  #300 ) ;
#393 = PERSON_AND_ORGANIZATION ( #302, #115 ) ;
#394 = PRODUCT_RELATED_PRODUCT_CATEGORY ( 'detail', '', ( #22 ) ) ;
#395 = CLOSED_SHELL ( 'NONE', ( #120, #267, #296, #52, #348, #223, #157, #41, #14, #213, #357, #204, #182, #26, #85, #358 ) ) ;
ENDSEC;
END-ISO-10303-21;
