ISO-10303-21;
HEADER;
FILE_DESCRIPTION (( 'STEP AP203' ),
    '1' );
FILE_NAME ('957949.step',
    '2021-10-08T05:54:13',
    ( '' ),
    ( '' ),
    'SwSTEP 2.0',
    'SolidWorks 2019',
    '' );
FILE_SCHEMA (( 'CONFIG_CONTROL_DESIGN' ));
ENDSEC;

DATA;
#1 = APPLICATION_PROTOCOL_DEFINITION ( 'international standard', 'config_control_design', 1994, #211 ) ;
#2 = CC_DESIGN_PERSON_AND_ORGANIZATION_ASSIGNMENT ( #159, #21, ( #208 ) ) ;
#3 = CC_DESIGN_APPROVAL ( #74, ( #103 ) ) ;
#4 = CALENDAR_DATE ( 2021, 8, 10 ) ;
#5 = LOCAL_TIME ( 7, 54, 13.00000000000000000, #147 ) ;
#6 = DATE_AND_TIME ( #22, #121 ) ;
#7 = ADVANCED_FACE ( 'NONE', ( #206 ), #87, .T. ) ;
#8 = FACE_BOUND ( 'NONE', #71, .T. ) ;
#9 = VERTEX_POINT ( 'NONE', #27 ) ;
#10 = DIRECTION ( 'NONE',  ( 0.0000000000000000000, -1.000000000000000000, 0.0000000000000000000 ) ) ;
#11 = PLANE ( 'NONE',  #79 ) ;
#12 = AXIS2_PLACEMENT_3D ( 'NONE', #220, #30, #51 ) ;
#13 = DIRECTION ( 'NONE',  ( -3.491481338843133355E-15, 1.224646799147353207E-16, -1.000000000000000000 ) ) ;
#14 = DIRECTION ( 'NONE',  ( 0.0000000000000000000, 0.0000000000000000000, 1.000000000000000000 ) ) ;
#15 = EDGE_LOOP ( 'NONE', ( #36 ) ) ;
#16 = PERSON_AND_ORGANIZATION ( #126, #60 ) ;
#17 = ORIENTED_EDGE ( 'NONE', *, *, #20, .T. ) ;
#18 = CIRCLE ( 'NONE', #44, 0.4600000000000007971 ) ;
#19 = DIRECTION ( 'NONE',  ( 3.491481338843133355E-15, -1.224646799147353207E-16, 1.000000000000000000 ) ) ;
#20 = EDGE_CURVE ( 'NONE', #9, #9, #111, .T. ) ;
#21 = PERSON_AND_ORGANIZATION_ROLE ( 'classification_officer' ) ;
#22 = CALENDAR_DATE ( 2021, 8, 10 ) ;
#23 = ADVANCED_FACE ( 'NONE', ( #8, #45 ), #181, .T. ) ;
#24 = CC_DESIGN_APPROVAL ( #149, ( #208 ) ) ;
#25 = EDGE_CURVE ( 'NONE', #99, #99, #112, .T. ) ;
#26 = APPLICATION_CONTEXT ( 'configuration controlled 3d designs of mechanical parts and assemblies' ) ;
#27 = CARTESIAN_POINT ( 'NONE',  ( 9.272715377917622742E-16, 0.4599999999999989098, 0.2655811238272303698 ) ) ;
#28 = AXIS2_PLACEMENT_3D ( 'NONE', #168, #13, #216 ) ;
#29 = CC_DESIGN_PERSON_AND_ORGANIZATION_ASSIGNMENT ( #16, #92, ( #103 ) ) ;
#30 = DIRECTION ( 'NONE',  ( -3.491481338843133355E-15, 1.224646799147353207E-16, -1.000000000000000000 ) ) ;
#31 = CARTESIAN_POINT ( 'NONE',  ( 2.478951750578624682E-14, -8.694992273946207746E-16, 7.100000000000000533 ) ) ;
#32 = DIRECTION ( 'NONE',  ( -3.491481338843133355E-15, 1.224646799147353207E-16, -1.000000000000000000 ) ) ;
#33 = AXIS2_PLACEMENT_3D ( 'NONE', #154, #34, #49 ) ;
#34 = DIRECTION ( 'NONE',  ( 3.491481338843133355E-15, -1.224646799147353207E-16, 1.000000000000000000 ) ) ;
#35 = CC_DESIGN_PERSON_AND_ORGANIZATION_ASSIGNMENT ( #70, #104, ( #148 ) ) ;
#36 = ORIENTED_EDGE ( 'NONE', *, *, #140, .T. ) ;
#37 = APPROVAL_DATE_TIME ( #73, #74 ) ;
#38 = DATE_AND_TIME ( #54, #132 ) ;
#39 = EDGE_CURVE ( 'NONE', #134, #134, #135, .T. ) ;
#40 = SECURITY_CLASSIFICATION_LEVEL ( 'unclassified' ) ;
#41 = PERSON_AND_ORGANIZATION ( #126, #60 ) ;
#42 = AXIS2_PLACEMENT_3D ( 'NONE', #152, #167, #118 ) ;
#43 = PRODUCT_DEFINITION ( 'UNKNOWN', '', #103, #114 ) ;
#44 = AXIS2_PLACEMENT_3D ( 'NONE', #31, #179, #165 ) ;
#45 = FACE_OUTER_BOUND ( 'NONE', #157, .T. ) ;
#46 = ADVANCED_FACE ( 'NONE', ( #133 ), #11, .F. ) ;
#47 = VERTEX_POINT ( 'NONE', #117 ) ;
#48 = APPROVAL_PERSON_ORGANIZATION ( #223, #149, #56 ) ;
#49 = DIRECTION ( 'NONE',  ( -4.275831445896958607E-31, -1.000000000000000000, -1.224646799147353207E-16 ) ) ;
#50 = FACE_OUTER_BOUND ( 'NONE', #192, .T. ) ;
#51 = DIRECTION ( 'NONE',  ( 0.0000000000000000000, 1.000000000000000000, 0.0000000000000000000 ) ) ;
#52 = DATE_AND_TIME ( #4, #218 ) ;
#53 = ORIENTED_EDGE ( 'NONE', *, *, #39, .T. ) ;
#54 = CALENDAR_DATE ( 2021, 8, 10 ) ;
#55 = CARTESIAN_POINT ( 'NONE',  ( 9.272715377917620770E-16, -3.252430732089744277E-17, 0.2655811238272303143 ) ) ;
#56 = APPROVAL_ROLE ( '' ) ;
#57 = AXIS2_PLACEMENT_3D ( 'NONE', #77, #101, #164 ) ;
#58 = CALENDAR_DATE ( 2021, 8, 10 ) ;
#59 = CC_DESIGN_DATE_AND_TIME_ASSIGNMENT ( #209, #109, ( #43 ) ) ;
#60 = ORGANIZATION ( 'UNSPECIFIED', 'UNSPECIFIED', '' ) ;
#61 = ADVANCED_FACE ( 'NONE', ( #198 ), #86, .F. ) ;
#62 =( GEOMETRIC_REPRESENTATION_CONTEXT ( 3 ) GLOBAL_UNCERTAINTY_ASSIGNED_CONTEXT ( ( #197 ) ) GLOBAL_UNIT_ASSIGNED_CONTEXT ( ( #125, #156, #221 ) ) REPRESENTATION_CONTEXT ( 'NONE', 'WORKASPACE' ) );
#63 = DIRECTION ( 'NONE',  ( 0.0000000000000000000, 1.000000000000000000, 0.0000000000000000000 ) ) ;
#64 = PLANE ( 'NONE',  #93 ) ;
#65 = AXIS2_PLACEMENT_3D ( 'NONE', #55, #19, #95 ) ;
#66 = CARTESIAN_POINT ( 'NONE',  ( 2.654327019682718040E-14, -9.310125912406656483E-16, 7.602294734194976478 ) ) ;
#67 = CARTESIAN_POINT ( 'NONE',  ( 0.0000000000000000000, 0.0000000000000000000, 0.0000000000000000000 ) ) ;
#68 = CARTESIAN_POINT ( 'NONE',  ( 2.478951750578624682E-14, -1.027717301129161025E-31, 7.100000000000000533 ) ) ;
#69 = MANIFOLD_SOLID_BREP ( 'Corps-Déplacer/Copier1[2]', #83 ) ;
#70 = PERSON_AND_ORGANIZATION ( #126, #60 ) ;
#71 = EDGE_LOOP ( 'NONE', ( #124 ) ) ;
#72 = MANIFOLD_SOLID_BREP ( 'Corps-Déplacer/Copier1[1]', #176 ) ;
#73 = DATE_AND_TIME ( #58, #212 ) ;
#74 = APPROVAL ( #123, 'UNSPECIFIED' ) ;
#75 = ORIENTED_EDGE ( 'NONE', *, *, #163, .F. ) ;
#76 = PERSON_AND_ORGANIZATION ( #126, #60 ) ;
#77 = CARTESIAN_POINT ( 'NONE',  ( 9.272715377917620770E-16, -3.252430732089744277E-17, 0.2655811238272303143 ) ) ;
#78 = APPROVAL_ROLE ( '' ) ;
#79 = AXIS2_PLACEMENT_3D ( 'NONE', #166, #201, #219 ) ;
#80 = APPROVAL_DATE_TIME ( #52, #213 ) ;
#81 = ADVANCED_FACE ( 'NONE', ( #150, #214 ), #196, .T. ) ;
#82 = PRODUCT_DEFINITION_SHAPE ( 'NONE', 'NONE',  #43 ) ;
#83 = CLOSED_SHELL ( 'NONE', ( #7, #217, #113 ) ) ;
#84 = FACE_OUTER_BOUND ( 'NONE', #188, .T. ) ;
#85 = FACE_OUTER_BOUND ( 'NONE', #142, .T. ) ;
#86 = PLANE ( 'NONE',  #33 ) ;
#87 = CONICAL_SURFACE ( 'NONE', #65, 0.4599999999999989653, 1.047197551196592746 ) ;
#88 = DIRECTION ( 'NONE',  ( -3.491481338843133355E-15, 1.224646799147353207E-16, -1.000000000000000000 ) ) ;
#89 = CC_DESIGN_PERSON_AND_ORGANIZATION_ASSIGNMENT ( #170, #205, ( #103 ) ) ;
#90 = CYLINDRICAL_SURFACE ( 'NONE', #177, 0.4599999999999999090 ) ;
#91 = EDGE_LOOP ( 'NONE', ( #105 ) ) ;
#92 = PERSON_AND_ORGANIZATION_ROLE ( 'design_supplier' ) ;
#93 = AXIS2_PLACEMENT_3D ( 'NONE', #68, #187, #202 ) ;
#94 = CARTESIAN_POINT ( 'NONE',  ( 0.0000000000000000000, 0.0000000000000000000, 0.0000000000000000000 ) ) ;
#95 = DIRECTION ( 'NONE',  ( -4.186804226928782580E-31, -1.000000000000000000, -1.178480622266855175E-16 ) ) ;
#96 = APPROVAL_PERSON_ORGANIZATION ( #175, #74, #189 ) ;
#97 = APPROVAL_DATE_TIME ( #6, #149 ) ;
#98 = CC_DESIGN_PERSON_AND_ORGANIZATION_ASSIGNMENT ( #41, #191, ( #43 ) ) ;
#99 = VERTEX_POINT ( 'NONE', #215 ) ;
#100 = CARTESIAN_POINT ( 'NONE',  ( 2.654327019682718040E-14, 0.7499999999999963363, 7.602294734194976478 ) ) ;
#101 = DIRECTION ( 'NONE',  ( -3.491481338843133355E-15, 1.224646799147353207E-16, -1.000000000000000000 ) ) ;
#102 = CARTESIAN_POINT ( 'NONE',  ( 2.654327019682718040E-14, -9.310125912406656483E-16, 7.602294734194976478 ) ) ;
#103 = PRODUCT_DEFINITION_FORMATION_WITH_SPECIFIED_SOURCE ( 'ANY', '', #148, .NOT_KNOWN. ) ;
#104 = PERSON_AND_ORGANIZATION_ROLE ( 'design_owner' ) ;
#105 = ORIENTED_EDGE ( 'NONE', *, *, #39, .F. ) ;
#106 = EDGE_LOOP ( 'NONE', ( #145 ) ) ;
#107 = COORDINATED_UNIVERSAL_TIME_OFFSET ( 1, 0, .AHEAD. ) ;
#108 = ORIENTED_EDGE ( 'NONE', *, *, #155, .T. ) ;
#109 = DATE_TIME_ROLE ( 'creation_date' ) ;
#110 = PRODUCT_RELATED_PRODUCT_CATEGORY ( 'detail', '', ( #148 ) ) ;
#111 = CIRCLE ( 'NONE', #57, 0.4599999999999989653 ) ;
#112 = CIRCLE ( 'NONE', #178, 0.7499999999999998890 ) ;
#113 = ADVANCED_FACE ( 'NONE', ( #84 ), #64, .T. ) ;
#114 = DESIGN_CONTEXT ( 'detailed design', #211, 'design' ) ;
#115 = FACE_OUTER_BOUND ( 'NONE', #190, .T. ) ;
#116 = AXIS2_PLACEMENT_3D ( 'NONE', #67, #32, #136 ) ;
#117 = CARTESIAN_POINT ( 'NONE',  ( 2.478951750578624682E-14, 0.4599999999999999090, 7.100000000000000533 ) ) ;
#118 = DIRECTION ( 'NONE',  ( 0.0000000000000000000, 1.000000000000000000, 0.0000000000000000000 ) ) ;
#119 = DIRECTION ( 'NONE',  ( 3.491481338843133355E-15, -1.224646799147353207E-16, 1.000000000000000000 ) ) ;
#120 = DIRECTION ( 'NONE',  ( 4.275831445896958607E-31, 1.000000000000000000, 1.224646799147353207E-16 ) ) ;
#121 = LOCAL_TIME ( 7, 54, 13.00000000000000000, #127 ) ;
#122 = EDGE_LOOP ( 'NONE', ( #53 ) ) ;
#123 = APPROVAL_STATUS ( 'not_yet_approved' ) ;
#124 = ORIENTED_EDGE ( 'NONE', *, *, #140, .F. ) ;
#125 =( LENGTH_UNIT ( ) NAMED_UNIT ( * ) SI_UNIT ( .MILLI., .METRE. ) );
#126 = PERSON ( 'UNSPECIFIED', 'UNSPECIFIED', 'UNSPECIFIED', ('UNSPECIFIED'), ('UNSPECIFIED'), ('UNSPECIFIED') ) ;
#127 = COORDINATED_UNIVERSAL_TIME_OFFSET ( 1, 0, .AHEAD. ) ;
#128 = MECHANICAL_CONTEXT ( 'NONE', #26, 'mechanical' ) ;
#129 = CALENDAR_DATE ( 2021, 8, 10 ) ;
#130 = AXIS2_PLACEMENT_3D ( 'NONE', #102, #183, #153 ) ;
#131 = CC_DESIGN_APPROVAL ( #213, ( #43 ) ) ;
#132 = LOCAL_TIME ( 7, 54, 13.00000000000000000, #143 ) ;
#133 = FACE_OUTER_BOUND ( 'NONE', #91, .T. ) ;
#134 = VERTEX_POINT ( 'NONE', #199 ) ;
#135 = CIRCLE ( 'NONE', #12, 0.6500000000000000222 ) ;
#136 = DIRECTION ( 'NONE',  ( 4.275831445896959482E-31, 1.000000000000000000, 1.224646799147353454E-16 ) ) ;
#137 = FACE_OUTER_BOUND ( 'NONE', #106, .T. ) ;
#138 = CARTESIAN_POINT ( 'NONE',  ( 0.0000000000000000000, 0.0000000000000000000, 0.0000000000000000000 ) ) ;
#139 = ORIENTED_EDGE ( 'NONE', *, *, #155, .F. ) ;
#140 = EDGE_CURVE ( 'NONE', #47, #47, #200, .T. ) ;
#141 = AXIS2_PLACEMENT_3D ( 'NONE', #94, #14, #193 ) ;
#142 = EDGE_LOOP ( 'NONE', ( #171 ) ) ;
#143 = COORDINATED_UNIVERSAL_TIME_OFFSET ( 1, 0, .AHEAD. ) ;
#144 = APPROVAL_STATUS ( 'not_yet_approved' ) ;
#145 = ORIENTED_EDGE ( 'NONE', *, *, #20, .F. ) ;
#146 = ADVANCED_FACE ( 'NONE', ( #115, #85 ), #203, .T. ) ;
#147 = COORDINATED_UNIVERSAL_TIME_OFFSET ( 1, 0, .AHEAD. ) ;
#148 = PRODUCT ( '957949', '957949', '', ( #128 ) ) ;
#149 = APPROVAL ( #207, 'UNSPECIFIED' ) ;
#150 = FACE_OUTER_BOUND ( 'NONE', #160, .T. ) ;
#151 = CARTESIAN_POINT ( 'NONE',  ( 1.043952920314096810E-13, -3.661693929450586610E-15, 29.89999999999999858 ) ) ;
#152 = CARTESIAN_POINT ( 'NONE',  ( 1.047444401652940007E-13, -3.673940397442059178E-15, 30.00000000000000000 ) ) ;
#153 = DIRECTION ( 'NONE',  ( 0.0000000000000000000, 1.000000000000000000, 0.0000000000000000000 ) ) ;
#154 = CARTESIAN_POINT ( 'NONE',  ( 2.478951750578624682E-14, -1.027717301129161025E-31, 7.100000000000000533 ) ) ;
#155 = EDGE_CURVE ( 'NONE', #182, #182, #158, .T. ) ;
#156 =( NAMED_UNIT ( * ) PLANE_ANGLE_UNIT ( ) SI_UNIT ( $, .RADIAN. ) );
#157 = EDGE_LOOP ( 'NONE', ( #108 ) ) ;
#158 = CIRCLE ( 'NONE', #130, 0.7499999999999973355 ) ;
#159 = PERSON_AND_ORGANIZATION ( #126, #60 ) ;
#160 = EDGE_LOOP ( 'NONE', ( #169 ) ) ;
#161 = APPLICATION_PROTOCOL_DEFINITION ( 'international standard', 'config_control_design', 1994, #26 ) ;
#162 = CC_DESIGN_SECURITY_CLASSIFICATION ( #208, ( #103 ) ) ;
#163 = EDGE_CURVE ( 'NONE', #194, #194, #18, .T. ) ;
#164 = DIRECTION ( 'NONE',  ( 4.186804226928782580E-31, 1.000000000000000000, 1.178480622266855175E-16 ) ) ;
#165 = DIRECTION ( 'NONE',  ( 0.0000000000000000000, 1.000000000000000000, 0.0000000000000000000 ) ) ;
#166 = CARTESIAN_POINT ( 'NONE',  ( 1.047444401652940007E-13, 4.874219293650981803E-33, 30.00000000000000000 ) ) ;
#167 = DIRECTION ( 'NONE',  ( -3.491481338843133355E-15, 1.224646799147353207E-16, -1.000000000000000000 ) ) ;
#168 = CARTESIAN_POINT ( 'NONE',  ( 2.478951750578624682E-14, -8.694992273946207746E-16, 7.100000000000000533 ) ) ;
#169 = ORIENTED_EDGE ( 'NONE', *, *, #25, .F. ) ;
#170 = PERSON_AND_ORGANIZATION ( #126, #60 ) ;
#171 = ORIENTED_EDGE ( 'NONE', *, *, #25, .T. ) ;
#172 = DATE_TIME_ROLE ( 'classification_date' ) ;
#173 = ORIENTED_EDGE ( 'NONE', *, *, #163, .T. ) ;
#174 = CARTESIAN_POINT ( 'NONE',  ( 2.478951750578624682E-14, 0.4599999999999999090, 7.100000000000000533 ) ) ;
#175 = PERSON_AND_ORGANIZATION ( #126, #60 ) ;
#176 = CLOSED_SHELL ( 'NONE', ( #61, #23, #146, #81, #46 ) ) ;
#177 = AXIS2_PLACEMENT_3D ( 'NONE', #138, #88, #120 ) ;
#178 = AXIS2_PLACEMENT_3D ( 'NONE', #151, #185, #63 ) ;
#179 = DIRECTION ( 'NONE',  ( -3.491481338843133355E-15, 1.224646799147353207E-16, -1.000000000000000000 ) ) ;
#180 = ADVANCED_BREP_SHAPE_REPRESENTATION ( '957949', ( #72, #69, #141 ), #62 ) ;
#181 = CONICAL_SURFACE ( 'NONE', #210, 0.7499999999999973355, 0.5235987755982923764 ) ;
#182 = VERTEX_POINT ( 'NONE', #100 ) ;
#183 = DIRECTION ( 'NONE',  ( -3.491481338843133355E-15, 1.224646799147353207E-16, -1.000000000000000000 ) ) ;
#184 = CC_DESIGN_DATE_AND_TIME_ASSIGNMENT ( #38, #172, ( #208 ) ) ;
#185 = DIRECTION ( 'NONE',  ( -3.491481338843133355E-15, 1.224646799147353207E-16, -1.000000000000000000 ) ) ;
#186 = APPROVAL_PERSON_ORGANIZATION ( #76, #213, #78 ) ;
#187 = DIRECTION ( 'NONE',  ( 3.491481338843133355E-15, -1.224646799147353207E-16, 1.000000000000000000 ) ) ;
#188 = EDGE_LOOP ( 'NONE', ( #75 ) ) ;
#189 = APPROVAL_ROLE ( '' ) ;
#190 = EDGE_LOOP ( 'NONE', ( #139 ) ) ;
#191 = PERSON_AND_ORGANIZATION_ROLE ( 'creator' ) ;
#192 = EDGE_LOOP ( 'NONE', ( #173 ) ) ;
#193 = DIRECTION ( 'NONE',  ( 1.000000000000000000, 0.0000000000000000000, 0.0000000000000000000 ) ) ;
#194 = VERTEX_POINT ( 'NONE', #174 ) ;
#195 = SHAPE_DEFINITION_REPRESENTATION ( #82, #180 ) ;
#196 = CONICAL_SURFACE ( 'NONE', #42, 0.6500000000000000222, 0.7853981633974510546 ) ;
#197 = UNCERTAINTY_MEASURE_WITH_UNIT (LENGTH_MEASURE( 1.000000000000000082E-05 ), #125, 'distance_accuracy_value', 'NONE');
#198 = FACE_OUTER_BOUND ( 'NONE', #15, .T. ) ;
#199 = CARTESIAN_POINT ( 'NONE',  ( 1.047444401652940007E-13, 0.6499999999999962474, 30.00000000000000000 ) ) ;
#200 = CIRCLE ( 'NONE', #28, 0.4600000000000007971 ) ;
#201 = DIRECTION ( 'NONE',  ( -3.491481338843133355E-15, 1.224646799147353207E-16, -1.000000000000000000 ) ) ;
#202 = DIRECTION ( 'NONE',  ( -4.275831445896958607E-31, -1.000000000000000000, -1.224646799147353207E-16 ) ) ;
#203 = CYLINDRICAL_SURFACE ( 'NONE', #116, 0.7499999999999985567 ) ;
#204 = COORDINATED_UNIVERSAL_TIME_OFFSET ( 1, 0, .AHEAD. ) ;
#205 = PERSON_AND_ORGANIZATION_ROLE ( 'creator' ) ;
#206 = FACE_OUTER_BOUND ( 'NONE', #222, .T. ) ;
#207 = APPROVAL_STATUS ( 'not_yet_approved' ) ;
#208 = SECURITY_CLASSIFICATION ( '', '', #40 ) ;
#209 = DATE_AND_TIME ( #129, #5 ) ;
#210 = AXIS2_PLACEMENT_3D ( 'NONE', #66, #119, #10 ) ;
#211 = APPLICATION_CONTEXT ( 'configuration controlled 3d designs of mechanical parts and assemblies' ) ;
#212 = LOCAL_TIME ( 7, 54, 13.00000000000000000, #107 ) ;
#213 = APPROVAL ( #144, 'UNSPECIFIED' ) ;
#214 = FACE_BOUND ( 'NONE', #122, .T. ) ;
#215 = CARTESIAN_POINT ( 'NONE',  ( 1.043952920314096810E-13, 0.7499999999999962252, 29.89999999999999858 ) ) ;
#216 = DIRECTION ( 'NONE',  ( 0.0000000000000000000, 1.000000000000000000, 0.0000000000000000000 ) ) ;
#217 = ADVANCED_FACE ( 'NONE', ( #137, #50 ), #90, .T. ) ;
#218 = LOCAL_TIME ( 7, 54, 13.00000000000000000, #204 ) ;
#219 = DIRECTION ( 'NONE',  ( 4.275831445896958607E-31, 1.000000000000000000, 1.224646799147353207E-16 ) ) ;
#220 = CARTESIAN_POINT ( 'NONE',  ( 1.047444401652940007E-13, -3.673940397442059178E-15, 30.00000000000000000 ) ) ;
#221 =( NAMED_UNIT ( * ) SI_UNIT ( $, .STERADIAN. ) SOLID_ANGLE_UNIT ( ) );
#222 = EDGE_LOOP ( 'NONE', ( #17 ) ) ;
#223 = PERSON_AND_ORGANIZATION ( #126, #60 ) ;
ENDSEC;
END-ISO-10303-21;
