ISO-10303-21;
HEADER;
FILE_DESCRIPTION (( 'STEP AP203' ),
    '1' );
FILE_NAME ('957925.step',
    '2023-09-27T05:49:09',
    ( '' ),
    ( '' ),
    'SwSTEP 2.0',
    'SolidWorks 2022',
    '' );
FILE_SCHEMA (( 'CONFIG_CONTROL_DESIGN' ));
ENDSEC;

DATA;
#1 = FACE_BOUND ( 'NONE', #390, .T. ) ;
#2 = DIRECTION ( 'NONE',  ( 1.000000000000000000, 0.000000000000000000, -2.891205793294682172E-15 ) ) ;
#3 = DATE_AND_TIME ( #167, #187 ) ;
#4 = FACE_OUTER_BOUND ( 'NONE', #198, .T. ) ;
#5 = AXIS2_PLACEMENT_3D ( 'NONE', #135, #365, #103 ) ;
#6 = ORIENTED_EDGE ( 'NONE', *, *, #107, .F. ) ;
#7 = ORIENTED_EDGE ( 'NONE', *, *, #80, .T. ) ;
#8 = EDGE_LOOP ( 'NONE', ( #197 ) ) ;
#9 = ORIENTED_EDGE ( 'NONE', *, *, #241, .F. ) ;
#10 = PRODUCT_RELATED_PRODUCT_CATEGORY ( 'detail', '', ( #205 ) ) ;
#11 = FACE_OUTER_BOUND ( 'NONE', #355, .T. ) ;
#12 = CIRCLE ( 'NONE', #242, 1.563119784648296484 ) ;
#13 = ORIENTED_EDGE ( 'NONE', *, *, #354, .T. ) ;
#14 = AXIS2_PLACEMENT_3D ( 'NONE', #207, #156, #268 ) ;
#15 = ORIENTED_EDGE ( 'NONE', *, *, #96, .F. ) ;
#16 = DIRECTION ( 'NONE',  ( 3.491481338843133355E-15, -0.000000000000000000, 1.000000000000000000 ) ) ;
#17 = CARTESIAN_POINT ( 'NONE',  ( 2.025000000000004352, 0.000000000000000000, 1.233333333333329174 ) ) ;
#18 = DIRECTION ( 'NONE',  ( -1.000000000000000000, 0.000000000000000000, 3.533695969582385070E-15 ) ) ;
#19 = PRODUCT_DEFINITION_SHAPE ( 'NONE', 'NONE',  #77 ) ;
#20 = CONICAL_SURFACE ( 'NONE', #260, 2.999999999999995115, 0.7853981633974442822 ) ;
#21 = FACE_OUTER_BOUND ( 'NONE', #372, .T. ) ;
#22 = DIRECTION ( 'NONE',  ( -1.000000000000000000, 0.000000000000000000, 3.491481338843133355E-15 ) ) ;
#23 = CALENDAR_DATE ( 2023, 27, 9 ) ;
#24 = CARTESIAN_POINT ( 'NONE',  ( 3.000000000000061728, 0.000000000000000000, 17.64025429777343490 ) ) ;
#25 = APPROVAL_STATUS ( 'not_yet_approved' ) ;
#26 = AXIS2_PLACEMENT_3D ( 'NONE', #294, #16, #233 ) ;
#27 = AXIS2_PLACEMENT_3D ( 'NONE', #39, #256, #370 ) ;
#28 = CIRCLE ( 'NONE', #243, 2.399999999999996803 ) ;
#29 = FACE_OUTER_BOUND ( 'NONE', #76, .T. ) ;
#30 = ORIENTED_EDGE ( 'NONE', *, *, #42, .F. ) ;
#31 = PERSON_AND_ORGANIZATION_ROLE ( 'design_supplier' ) ;
#32 = FACE_OUTER_BOUND ( 'NONE', #257, .T. ) ;
#33 = PERSON_AND_ORGANIZATION ( #75, #327 ) ;
#34 = DIRECTION ( 'NONE',  ( 3.491481338843133355E-15, -0.000000000000000000, 1.000000000000000000 ) ) ;
#35 = PERSON_AND_ORGANIZATION ( #75, #327 ) ;
#36 = DIRECTION ( 'NONE',  ( 3.491481338843133355E-15, -0.000000000000000000, 1.000000000000000000 ) ) ;
#37 = CIRCLE ( 'NONE', #381, 3.000000000000000000 ) ;
#38 = TOROIDAL_SURFACE ( 'NONE', #394, 2.389999999999998348, 0.9999999999999997780 ) ;
#39 = CARTESIAN_POINT ( 'NONE',  ( 1.990144363140586139E-13, 0.000000000000000000, 57.00000000000000000 ) ) ;
#40 = ORIENTED_EDGE ( 'NONE', *, *, #177, .T. ) ;
#41 = CARTESIAN_POINT ( 'NONE',  ( 5.237222008264704766E-15, 0.000000000000000000, 1.500000000000001332 ) ) ;
#42 = EDGE_CURVE ( 'NONE', #331, #331, #341, .T. ) ;
#43 = CARTESIAN_POINT ( 'NONE',  ( 1.512975246832027346E-15, 0.000000000000000000, 0.4333333333333341808 ) ) ;
#44 = FACE_BOUND ( 'NONE', #70, .T. ) ;
#45 = DIRECTION ( 'NONE',  ( 3.491481338843133355E-15, -0.000000000000000000, 1.000000000000000000 ) ) ;
#46 = ADVANCED_FACE ( 'NONE', ( #254, #144 ), #289, .T. ) ;
#47 = VERTEX_POINT ( 'NONE', #200 ) ;
#48 = CC_DESIGN_APPROVAL ( #297, ( #212 ) ) ;
#49 = FACE_BOUND ( 'NONE', #259, .T. ) ;
#50 = ADVANCED_FACE ( 'NONE', ( #376, #174 ), #320, .T. ) ;
#51 = CONICAL_SURFACE ( 'NONE', #102, 2.024999999999999911, 1.047197551196602960 ) ;
#52 = AXIS2_PLACEMENT_3D ( 'NONE', #265, #264, #384 ) ;
#53 = FACE_OUTER_BOUND ( 'NONE', #165, .T. ) ;
#54 = VERTEX_POINT ( 'NONE', #183 ) ;
#55 = COORDINATED_UNIVERSAL_TIME_OFFSET ( 1, 0, .AHEAD. ) ;
#56 = DIRECTION ( 'NONE',  ( 1.000000000000000000, 0.000000000000000000, -3.533695969582385070E-15 ) ) ;
#57 = APPROVAL_ROLE ( '' ) ;
#58 = CIRCLE ( 'NONE', #318, 1.424074173710928370 ) ;
#59 = AXIS2_PLACEMENT_3D ( 'NONE', #337, #34, #246 ) ;
#60 = ADVANCED_FACE ( 'NONE', ( #11, #4 ), #109, .T. ) ;
#61 = CARTESIAN_POINT ( 'NONE',  ( 1.990144363140586139E-13, 2.399999999999996803, 57.00000000000000000 ) ) ;
#62 = ORIENTED_EDGE ( 'NONE', *, *, #116, .F. ) ;
#63 = PERSON_AND_ORGANIZATION ( #75, #327 ) ;
#64 = DIRECTION ( 'NONE',  ( 3.491481338843133355E-15, -0.000000000000000000, 1.000000000000000000 ) ) ;
#65 = ORIENTED_EDGE ( 'NONE', *, *, #177, .F. ) ;
#66 = ADVANCED_FACE ( 'NONE', ( #228, #226 ), #51, .T. ) ;
#67 = APPROVAL_ROLE ( '' ) ;
#68 = ORIENTED_EDGE ( 'NONE', *, *, #330, .T. ) ;
#69 = VERTEX_POINT ( 'NONE', #287 ) ;
#70 = EDGE_LOOP ( 'NONE', ( #239 ) ) ;
#71 = CARTESIAN_POINT ( 'NONE',  ( 3.142333204958813314E-15, 0.000000000000000000, 0.8999999999999980238 ) ) ;
#72 = AXIS2_PLACEMENT_3D ( 'NONE', #71, #231, #196 ) ;
#73 = CIRCLE ( 'NONE', #5, 2.999999999999995115 ) ;
#74 = DIRECTION ( 'NONE',  ( 3.491481338843133355E-15, -0.000000000000000000, 1.000000000000000000 ) ) ;
#75 = PERSON ( 'UNSPECIFIED', 'UNSPECIFIED', 'UNSPECIFIED', ('UNSPECIFIED'), ('UNSPECIFIED'), ('UNSPECIFIED') ) ;
#76 = EDGE_LOOP ( 'NONE', ( #283 ) ) ;
#77 = PRODUCT_DEFINITION ( 'UNKNOWN', '', #212, #352 ) ;
#78 = DIRECTION ( 'NONE',  ( 3.491481338843133355E-15, -0.000000000000000000, 1.000000000000000000 ) ) ;
#79 = EDGE_CURVE ( 'NONE', #54, #54, #279, .T. ) ;
#80 = EDGE_CURVE ( 'NONE', #303, #303, #37, .T. ) ;
#81 = CARTESIAN_POINT ( 'NONE',  ( 2.025000000000001243, 0.000000000000000000, 0.4333333333333271309 ) ) ;
#82 = CARTESIAN_POINT ( 'NONE',  ( 4.073394895317000221E-15, 0.000000000000000000, 1.166666666666670071 ) ) ;
#83 = FACE_OUTER_BOUND ( 'NONE', #106, .T. ) ;
#84 = CARTESIAN_POINT ( 'NONE',  ( 2.444036937190190588E-15, 0.000000000000000000, 0.6999999999999992895 ) ) ;
#85 = CC_DESIGN_PERSON_AND_ORGANIZATION_ASSIGNMENT ( #364, #31, ( #212 ) ) ;
#86 = EDGE_LOOP ( 'NONE', ( #139 ) ) ;
#87 = AXIS2_PLACEMENT_3D ( 'NONE', #314, #74, #262 ) ;
#88 = AXIS2_PLACEMENT_3D ( 'NONE', #61, #218, #97 ) ;
#89 = EDGE_CURVE ( 'NONE', #273, #273, #234, .T. ) ;
#90 = ORIENTED_EDGE ( 'NONE', *, *, #89, .T. ) ;
#91 = CC_DESIGN_DATE_AND_TIME_ASSIGNMENT ( #334, #101, ( #77 ) ) ;
#92 = DIRECTION ( 'NONE',  ( 1.000000000000000000, 0.000000000000000000, -3.468071299249311414E-15 ) ) ;
#93 = AXIS2_PLACEMENT_3D ( 'NONE', #206, #238, #18 ) ;
#94 = DIRECTION ( 'NONE',  ( 3.491481338843133355E-15, -0.000000000000000000, 1.000000000000000000 ) ) ;
#95 = APPLICATION_PROTOCOL_DEFINITION ( 'international standard', 'config_control_design', 1994, #131 ) ;
#96 = EDGE_CURVE ( 'NONE', #134, #134, #119, .T. ) ;
#97 = DIRECTION ( 'NONE',  ( -1.000000000000000000, 0.000000000000000000, 3.491481338843133355E-15 ) ) ;
#98 = DATE_AND_TIME ( #159, #168 ) ;
#99 = CARTESIAN_POINT ( 'NONE',  ( 5.586370142149013368E-15, 1.563119784648296484, 1.600000000000000089 ) ) ;
#100 = EDGE_LOOP ( 'NONE', ( #30 ) ) ;
#101 = DATE_TIME_ROLE ( 'creation_date' ) ;
#102 = AXIS2_PLACEMENT_3D ( 'NONE', #43, #147, #344 ) ;
#103 = DIRECTION ( 'NONE',  ( 1.000000000000000000, 0.000000000000000000, -4.625929269271493211E-15 ) ) ;
#104 = ADVANCED_BREP_SHAPE_REPRESENTATION ( '957925', ( #391, #14 ), #120 ) ;
#105 = CALENDAR_DATE ( 2023, 27, 9 ) ;
#106 = EDGE_LOOP ( 'NONE', ( #125 ) ) ;
#107 = EDGE_CURVE ( 'NONE', #69, #69, #295, .T. ) ;
#108 = PERSON_AND_ORGANIZATION_ROLE ( 'design_owner' ) ;
#109 = CYLINDRICAL_SURFACE ( 'NONE', #387, 1.563119784648296484 ) ;
#110 = DIRECTION ( 'NONE',  ( 3.491481338843133355E-15, -0.000000000000000000, 1.000000000000000000 ) ) ;
#111 = CLOSED_SHELL ( 'NONE', ( #215, #137, #50, #66, #195, #386, #203, #193, #60, #224, #255, #378, #130, #46, #236, #209 ) ) ;
#112 = CARTESIAN_POINT ( 'NONE',  ( 1.563119784648298927, 0.000000000000000000, 0.6999999999999938494 ) ) ;
#113 = CONICAL_SURFACE ( 'NONE', #26, 1.424074173710928370, 0.2617993877991430240 ) ;
#114 = DIRECTION ( 'NONE',  ( 1.000000000000000000, 0.000000000000000000, -3.469446951953614189E-15 ) ) ;
#115 = EDGE_LOOP ( 'NONE', ( #90 ) ) ;
#116 = EDGE_CURVE ( 'NONE', #263, #263, #393, .T. ) ;
#117 = CARTESIAN_POINT ( 'NONE',  ( 2.025000000000003908, 0.000000000000000000, 1.166666666666662966 ) ) ;
#118 = DIRECTION ( 'NONE',  ( 1.000000000000000000, 0.000000000000000000, -3.491481338843132961E-15 ) ) ;
#119 = CIRCLE ( 'NONE', #72, 1.563119784648296706 ) ;
#120 =( GEOMETRIC_REPRESENTATION_CONTEXT ( 3 ) GLOBAL_UNCERTAINTY_ASSIGNED_CONTEXT ( ( #284 ) ) GLOBAL_UNIT_ASSIGNED_CONTEXT ( ( #237, #178, #171 ) ) REPRESENTATION_CONTEXT ( 'NONE', 'WORKASPACE' ) );
#121 = VERTEX_POINT ( 'NONE', #17 ) ;
#122 = CARTESIAN_POINT ( 'NONE',  ( 4.105569726280866572E-14, 0.000000000000000000, 11.75881904510251630 ) ) ;
#123 = CC_DESIGN_PERSON_AND_ORGANIZATION_ASSIGNMENT ( #35, #220, ( #313 ) ) ;
#124 = DIRECTION ( 'NONE',  ( 3.491481338843133355E-15, -0.000000000000000000, 1.000000000000000000 ) ) ;
#125 = ORIENTED_EDGE ( 'NONE', *, *, #155, .T. ) ;
#126 = CARTESIAN_POINT ( 'NONE',  ( 3.142333204958813314E-15, 0.000000000000000000, 0.8999999999999980238 ) ) ;
#127 = PERSON_AND_ORGANIZATION ( #75, #327 ) ;
#128 = CC_DESIGN_PERSON_AND_ORGANIZATION_ASSIGNMENT ( #127, #108, ( #205 ) ) ;
#129 = FACE_OUTER_BOUND ( 'NONE', #223, .T. ) ;
#130 = ADVANCED_FACE ( 'NONE', ( #208, #49 ), #113, .T. ) ;
#131 = APPLICATION_CONTEXT ( 'configuration controlled 3d designs of mechanical parts and assemblies' ) ;
#132 = AXIS2_PLACEMENT_3D ( 'NONE', #347, #78, #118 ) ;
#133 = APPROVAL_PERSON_ORGANIZATION ( #184, #297, #57 ) ;
#134 = VERTEX_POINT ( 'NONE', #321 ) ;
#135 = CARTESIAN_POINT ( 'NONE',  ( 1.969195475107527212E-13, 0.000000000000000000, 56.39999999999999858 ) ) ;
#136 = COORDINATED_UNIVERSAL_TIME_OFFSET ( 1, 0, .AHEAD. ) ;
#137 = ADVANCED_FACE ( 'NONE', ( #21, #44 ), #161, .T. ) ;
#138 = CYLINDRICAL_SURFACE ( 'NONE', #59, 1.389999999999999236 ) ;
#139 = ORIENTED_EDGE ( 'NONE', *, *, #80, .F. ) ;
#140 = COORDINATED_UNIVERSAL_TIME_OFFSET ( 1, 0, .AHEAD. ) ;
#141 = EDGE_LOOP ( 'NONE', ( #326 ) ) ;
#142 = CONICAL_SURFACE ( 'NONE', #227, 1.563119784648296706, 1.047197551196591636 ) ;
#143 = APPROVAL_ROLE ( '' ) ;
#144 = FACE_OUTER_BOUND ( 'NONE', #261, .T. ) ;
#145 = DIRECTION ( 'NONE',  ( 1.000000000000000000, 0.000000000000000000, -4.439131263039119556E-15 ) ) ;
#146 = EDGE_LOOP ( 'NONE', ( #6 ) ) ;
#147 = DIRECTION ( 'NONE',  ( -3.491481338843133355E-15, 0.000000000000000000, -1.000000000000000000 ) ) ;
#148 = CARTESIAN_POINT ( 'NONE',  ( 6.159061869312336535E-14, 0.000000000000000000, 17.64025429777344556 ) ) ;
#149 = FACE_BOUND ( 'NONE', #100, .T. ) ;
#150 = VERTEX_POINT ( 'NONE', #175 ) ;
#151 = DIRECTION ( 'NONE',  ( 1.000000000000000000, 0.000000000000000000, -3.468071299249311808E-15 ) ) ;
#152 = AXIS2_PLACEMENT_3D ( 'NONE', #41, #36, #282 ) ;
#153 = LOCAL_TIME ( 7, 49, 9.000000000000000000, #190 ) ;
#154 = DIRECTION ( 'NONE',  ( 3.491481338843133355E-15, -0.000000000000000000, 1.000000000000000000 ) ) ;
#155 = EDGE_CURVE ( 'NONE', #229, #229, #325, .T. ) ;
#156 = DIRECTION ( 'NONE',  ( 0.000000000000000000, 0.000000000000000000, 1.000000000000000000 ) ) ;
#157 = CC_DESIGN_PERSON_AND_ORGANIZATION_ASSIGNMENT ( #311, #214, ( #77 ) ) ;
#158 = CARTESIAN_POINT ( 'NONE',  ( 4.306160317906541130E-15, 0.000000000000000000, 1.233333333333336279 ) ) ;
#159 = CALENDAR_DATE ( 2023, 27, 9 ) ;
#160 = CARTESIAN_POINT ( 'NONE',  ( 4.015203539669603990E-14, 0.000000000000000000, 11.50000000000000355 ) ) ;
#161 = CONICAL_SURFACE ( 'NONE', #186, 1.389914703891408587, 1.047197551196598297 ) ;
#162 = PERSON_AND_ORGANIZATION ( #75, #327 ) ;
#163 = EDGE_CURVE ( 'NONE', #380, #380, #12, .T. ) ;
#164 = PLANE ( 'NONE',  #88 ) ;
#165 = EDGE_LOOP ( 'NONE', ( #345 ) ) ;
#166 = DIRECTION ( 'NONE',  ( 3.491481338843133355E-15, -0.000000000000000000, 1.000000000000000000 ) ) ;
#167 = CALENDAR_DATE ( 2023, 27, 9 ) ;
#168 = LOCAL_TIME ( 7, 49, 9.000000000000000000, #362 ) ;
#169 = EDGE_LOOP ( 'NONE', ( #316 ) ) ;
#170 = CARTESIAN_POINT ( 'NONE',  ( 1.990144363140586139E-13, 0.000000000000000000, 57.00000000000000000 ) ) ;
#171 =( NAMED_UNIT ( * ) SI_UNIT ( $, .STERADIAN. ) SOLID_ANGLE_UNIT ( ) );
#172 = CARTESIAN_POINT ( 'NONE',  ( 5.586370142149003902E-15, 0.000000000000000000, 1.599999999999997202 ) ) ;
#173 = AXIS2_PLACEMENT_3D ( 'NONE', #351, #94, #213 ) ;
#174 = FACE_OUTER_BOUND ( 'NONE', #115, .T. ) ;
#175 = CARTESIAN_POINT ( 'NONE',  ( 1.390000000000038760, 0.000000000000000000, 11.49999999999999822 ) ) ;
#176 = DIRECTION ( 'NONE',  ( 3.491481338843133355E-15, -0.000000000000000000, 1.000000000000000000 ) ) ;
#177 = EDGE_CURVE ( 'NONE', #232, #232, #58, .T. ) ;
#178 =( NAMED_UNIT ( * ) PLANE_ANGLE_UNIT ( ) SI_UNIT ( $, .RADIAN. ) );
#179 = CARTESIAN_POINT ( 'NONE',  ( 0.000000000000000000, 0.000000000000000000, 0.000000000000000000 ) ) ;
#180 = DIRECTION ( 'NONE',  ( -1.000000000000000000, 0.000000000000000000, 4.625929269271493211E-15 ) ) ;
#181 = ORIENTED_EDGE ( 'NONE', *, *, #163, .T. ) ;
#182 = DATE_AND_TIME ( #105, #153 ) ;
#183 = CARTESIAN_POINT ( 'NONE',  ( 1.390000000000005675, 0.000000000000000000, 1.599999999999992539 ) ) ;
#184 = PERSON_AND_ORGANIZATION ( #75, #327 ) ;
#185 = DIRECTION ( 'NONE',  ( 3.491481338843133355E-15, -0.000000000000000000, 1.000000000000000000 ) ) ;
#186 = AXIS2_PLACEMENT_3D ( 'NONE', #179, #124, #350 ) ;
#187 = LOCAL_TIME ( 7, 49, 9.000000000000000000, #140 ) ;
#188 = DATE_AND_TIME ( #23, #388 ) ;
#189 = PLANE ( 'NONE',  #247 ) ;
#190 = COORDINATED_UNIVERSAL_TIME_OFFSET ( 1, 0, .AHEAD. ) ;
#191 = DIRECTION ( 'NONE',  ( 3.491481338843133355E-15, -0.000000000000000000, 1.000000000000000000 ) ) ;
#192 = PERSON_AND_ORGANIZATION_ROLE ( 'creator' ) ;
#193 = ADVANCED_FACE ( 'NONE', ( #149, #353 ), #235, .T. ) ;
#194 = ORIENTED_EDGE ( 'NONE', *, *, #116, .T. ) ;
#195 = ADVANCED_FACE ( 'NONE', ( #324, #290 ), #323, .T. ) ;
#196 = DIRECTION ( 'NONE',  ( 1.000000000000000000, 0.000000000000000000, -3.468071299249311414E-15 ) ) ;
#197 = ORIENTED_EDGE ( 'NONE', *, *, #305, .F. ) ;
#198 = EDGE_LOOP ( 'NONE', ( #199 ) ) ;
#199 = ORIENTED_EDGE ( 'NONE', *, *, #42, .T. ) ;
#200 = CARTESIAN_POINT ( 'NONE',  ( 2.400000000000195755, 0.000000000000000000, 56.99999999999999289 ) ) ;
#201 = DIRECTION ( 'NONE',  ( 1.000000000000000000, 0.000000000000000000, -3.426614273534433996E-15 ) ) ;
#202 = VERTEX_POINT ( 'NONE', #293 ) ;
#203 = ADVANCED_FACE ( 'NONE', ( #379, #83 ), #383, .T. ) ;
#204 = CARTESIAN_POINT ( 'NONE',  ( 5.586370142149003902E-15, 0.000000000000000000, 1.599999999999997202 ) ) ;
#205 = PRODUCT ( '957925', '957925', '', ( #356 ) ) ;
#206 = CARTESIAN_POINT ( 'NONE',  ( 4.306160317906541130E-15, 0.000000000000000000, 1.233333333333336279 ) ) ;
#207 = CARTESIAN_POINT ( 'NONE',  ( 0.000000000000000000, 0.000000000000000000, 0.000000000000000000 ) ) ;
#208 = FACE_OUTER_BOUND ( 'NONE', #86, .T. ) ;
#209 = ADVANCED_FACE ( 'NONE', ( #129 ), #164, .F. ) ;
#210 = EDGE_LOOP ( 'NONE', ( #13 ) ) ;
#211 = CARTESIAN_POINT ( 'NONE',  ( 1.563119784648301813, 0.000000000000000000, 1.499999999999996003 ) ) ;
#212 = PRODUCT_DEFINITION_FORMATION_WITH_SPECIFIED_SOURCE ( 'ANY', '', #205, .NOT_KNOWN. ) ;
#213 = DIRECTION ( 'NONE',  ( 1.000000000000000000, 0.000000000000000000, -3.426614273534433996E-15 ) ) ;
#214 = PERSON_AND_ORGANIZATION_ROLE ( 'creator' ) ;
#215 = ADVANCED_FACE ( 'NONE', ( #304 ), #189, .F. ) ;
#216 = CARTESIAN_POINT ( 'NONE',  ( 1.969195475107527212E-13, 0.000000000000000000, 56.39999999999999858 ) ) ;
#217 = APPROVAL_DATE_TIME ( #98, #346 ) ;
#218 = DIRECTION ( 'NONE',  ( -3.491481338843133355E-15, 0.000000000000000000, -1.000000000000000000 ) ) ;
#219 = CC_DESIGN_APPROVAL ( #332, ( #313 ) ) ;
#220 = PERSON_AND_ORGANIZATION_ROLE ( 'classification_officer' ) ;
#221 = PLANE ( 'NONE',  #296 ) ;
#222 = EDGE_LOOP ( 'NONE', ( #68 ) ) ;
#223 = EDGE_LOOP ( 'NONE', ( #312 ) ) ;
#224 = ADVANCED_FACE ( 'NONE', ( #307, #32 ), #221, .F. ) ;
#225 = DIRECTION ( 'NONE',  ( 1.000000000000000000, 0.000000000000000000, -3.432006876932532217E-15 ) ) ;
#226 = FACE_OUTER_BOUND ( 'NONE', #169, .T. ) ;
#227 = AXIS2_PLACEMENT_3D ( 'NONE', #126, #185, #92 ) ;
#228 = FACE_BOUND ( 'NONE', #308, .T. ) ;
#229 = VERTEX_POINT ( 'NONE', #117 ) ;
#230 = VERTEX_POINT ( 'NONE', #81 ) ;
#231 = DIRECTION ( 'NONE',  ( 3.491481338843133355E-15, -0.000000000000000000, 1.000000000000000000 ) ) ;
#232 = VERTEX_POINT ( 'NONE', #291 ) ;
#233 = DIRECTION ( 'NONE',  ( 1.000000000000000000, 0.000000000000000000, -3.654423711911800510E-15 ) ) ;
#234 = CIRCLE ( 'NONE', #87, 2.024999999999999911 ) ;
#235 = CONICAL_SURFACE ( 'NONE', #93, 2.024999999999999911, 1.047197551196602960 ) ;
#236 = ADVANCED_FACE ( 'NONE', ( #1, #53 ), #20, .T. ) ;
#237 =( LENGTH_UNIT ( ) NAMED_UNIT ( * ) SI_UNIT ( .MILLI., .METRE. ) );
#238 = DIRECTION ( 'NONE',  ( -3.491481338843133355E-15, 0.000000000000000000, -1.000000000000000000 ) ) ;
#239 = ORIENTED_EDGE ( 'NONE', *, *, #107, .T. ) ;
#240 = DIRECTION ( 'NONE',  ( 3.491481338843133355E-15, -0.000000000000000000, 1.000000000000000000 ) ) ;
#241 = EDGE_CURVE ( 'NONE', #47, #47, #28, .T. ) ;
#242 = AXIS2_PLACEMENT_3D ( 'NONE', #204, #240, #151 ) ;
#243 = AXIS2_PLACEMENT_3D ( 'NONE', #300, #166, #2 ) ;
#244 = ORIENTED_EDGE ( 'NONE', *, *, #96, .T. ) ;
#245 = DIRECTION ( 'NONE',  ( -3.491481338843133355E-15, 0.000000000000000000, -1.000000000000000000 ) ) ;
#246 = DIRECTION ( 'NONE',  ( 1.000000000000000000, 0.000000000000000000, -4.992010002810958749E-15 ) ) ;
#247 = AXIS2_PLACEMENT_3D ( 'NONE', #335, #276, #248 ) ;
#248 = DIRECTION ( 'NONE',  ( 1.000000000000000000, 0.000000000000000000, -3.491481338843133355E-15 ) ) ;
#249 = DIRECTION ( 'NONE',  ( 3.491481338843133355E-15, -0.000000000000000000, 1.000000000000000000 ) ) ;
#250 = SECURITY_CLASSIFICATION_LEVEL ( 'unclassified' ) ;
#251 = DIRECTION ( 'NONE',  ( 1.000000000000000000, 0.000000000000000000, -3.480155121558409533E-15 ) ) ;
#252 = EDGE_LOOP ( 'NONE', ( #369 ) ) ;
#253 = APPROVAL_DATE_TIME ( #3, #332 ) ;
#254 = FACE_OUTER_BOUND ( 'NONE', #8, .T. ) ;
#255 = ADVANCED_FACE ( 'NONE', ( #29, #333 ), #138, .T. ) ;
#256 = DIRECTION ( 'NONE',  ( 3.491481338843133355E-15, -0.000000000000000000, 1.000000000000000000 ) ) ;
#257 = EDGE_LOOP ( 'NONE', ( #181 ) ) ;
#258 = DIRECTION ( 'NONE',  ( 3.491481338843133355E-15, -0.000000000000000000, 1.000000000000000000 ) ) ;
#259 = EDGE_LOOP ( 'NONE', ( #40 ) ) ;
#260 = AXIS2_PLACEMENT_3D ( 'NONE', #216, #360, #180 ) ;
#261 = EDGE_LOOP ( 'NONE', ( #7 ) ) ;
#262 = DIRECTION ( 'NONE',  ( 1.000000000000000000, 0.000000000000000000, -3.480155121558409533E-15 ) ) ;
#263 = VERTEX_POINT ( 'NONE', #112 ) ;
#264 = DIRECTION ( 'NONE',  ( 3.491481338843133355E-15, -0.000000000000000000, 1.000000000000000000 ) ) ;
#265 = CARTESIAN_POINT ( 'NONE',  ( 1.990144363140586139E-13, 0.000000000000000000, 57.00000000000000000 ) ) ;
#266 = APPROVAL_PERSON_ORGANIZATION ( #162, #346, #143 ) ;
#267 = DIRECTION ( 'NONE',  ( 1.000000000000000000, 0.000000000000000000, -3.533695969582385070E-15 ) ) ;
#268 = DIRECTION ( 'NONE',  ( 1.000000000000000000, 0.000000000000000000, 0.000000000000000000 ) ) ;
#269 = EDGE_CURVE ( 'NONE', #230, #230, #367, .T. ) ;
#270 = AXIS2_PLACEMENT_3D ( 'NONE', #170, #110, #201 ) ;
#271 = CARTESIAN_POINT ( 'NONE',  ( 4.015203539669602727E-14, 0.000000000000000000, 11.50000000000000000 ) ) ;
#272 = APPROVAL_STATUS ( 'not_yet_approved' ) ;
#273 = VERTEX_POINT ( 'NONE', #395 ) ;
#274 = APPROVAL_PERSON_ORGANIZATION ( #33, #332, #67 ) ;
#275 = CARTESIAN_POINT ( 'NONE',  ( 1.512975246832027346E-15, 0.000000000000000000, 0.4333333333333341808 ) ) ;
#276 = DIRECTION ( 'NONE',  ( 3.491481338843133355E-15, -0.000000000000000000, 1.000000000000000000 ) ) ;
#277 = EDGE_LOOP ( 'NONE', ( #244 ) ) ;
#278 = APPROVAL_STATUS ( 'not_yet_approved' ) ;
#279 = CIRCLE ( 'NONE', #366, 1.389999999999999902 ) ;
#280 = CIRCLE ( 'NONE', #288, 1.389999999999998570 ) ;
#281 = SHAPE_DEFINITION_REPRESENTATION ( #19, #104 ) ;
#282 = DIRECTION ( 'NONE',  ( 1.000000000000000000, 0.000000000000000000, -3.468071299249311414E-15 ) ) ;
#283 = ORIENTED_EDGE ( 'NONE', *, *, #330, .F. ) ;
#284 = UNCERTAINTY_MEASURE_WITH_UNIT (LENGTH_MEASURE( 1.000000000000000082E-05 ), #237, 'distance_accuracy_value', 'NONE');
#285 = EDGE_LOOP ( 'NONE', ( #338 ) ) ;
#286 = ORIENTED_EDGE ( 'NONE', *, *, #163, .F. ) ;
#287 = CARTESIAN_POINT ( 'NONE',  ( 1.389914703891408587, 0.000000000000000000, -4.852861251220532204E-15 ) ) ;
#288 = AXIS2_PLACEMENT_3D ( 'NONE', #160, #64, #328 ) ;
#289 = CYLINDRICAL_SURFACE ( 'NONE', #27, 2.999999999999997335 ) ;
#290 = FACE_OUTER_BOUND ( 'NONE', #339, .T. ) ;
#291 = CARTESIAN_POINT ( 'NONE',  ( 1.424074173710969449, 0.000000000000000000, 11.75881904510251097 ) ) ;
#292 = DIRECTION ( 'NONE',  ( 1.000000000000000000, 0.000000000000000000, -3.654423711911800510E-15 ) ) ;
#293 = CARTESIAN_POINT ( 'NONE',  ( 3.000000000000192291, 0.000000000000000000, 56.39999999999998437 ) ) ;
#294 = CARTESIAN_POINT ( 'NONE',  ( 4.105569726280866572E-14, 0.000000000000000000, 11.75881904510251630 ) ) ;
#295 = CIRCLE ( 'NONE', #132, 1.389914703891408587 ) ;
#296 = AXIS2_PLACEMENT_3D ( 'NONE', #99, #245, #22 ) ;
#297 = APPROVAL ( #272, 'UNSPECIFIED' ) ;
#298 = CC_DESIGN_DATE_AND_TIME_ASSIGNMENT ( #182, #302, ( #313 ) ) ;
#299 = EDGE_LOOP ( 'NONE', ( #329 ) ) ;
#300 = CARTESIAN_POINT ( 'NONE',  ( 1.990144363140586139E-13, 0.000000000000000000, 57.00000000000000000 ) ) ;
#301 = ORIENTED_EDGE ( 'NONE', *, *, #155, .F. ) ;
#302 = DATE_TIME_ROLE ( 'classification_date' ) ;
#303 = VERTEX_POINT ( 'NONE', #24 ) ;
#304 = FACE_OUTER_BOUND ( 'NONE', #146, .T. ) ;
#305 = EDGE_CURVE ( 'NONE', #202, #202, #73, .T. ) ;
#306 = APPROVAL_DATE_TIME ( #188, #297 ) ;
#307 = FACE_BOUND ( 'NONE', #252, .T. ) ;
#308 = EDGE_LOOP ( 'NONE', ( #62 ) ) ;
#309 = FACE_OUTER_BOUND ( 'NONE', #315, .T. ) ;
#310 = EDGE_LOOP ( 'NONE', ( #301 ) ) ;
#311 = PERSON_AND_ORGANIZATION ( #75, #327 ) ;
#312 = ORIENTED_EDGE ( 'NONE', *, *, #241, .T. ) ;
#313 = SECURITY_CLASSIFICATION ( '', '', #250 ) ;
#314 = CARTESIAN_POINT ( 'NONE',  ( 1.280209824242486635E-15, 0.000000000000000000, 0.3666666666666679175 ) ) ;
#315 = EDGE_LOOP ( 'NONE', ( #65 ) ) ;
#316 = ORIENTED_EDGE ( 'NONE', *, *, #269, .T. ) ;
#317 = CARTESIAN_POINT ( 'NONE',  ( 1.990144363140586139E-13, 0.000000000000000000, 57.00000000000000000 ) ) ;
#318 = AXIS2_PLACEMENT_3D ( 'NONE', #122, #176, #292 ) ;
#319 = CIRCLE ( 'NONE', #343, 2.024999999999999911 ) ;
#320 = CYLINDRICAL_SURFACE ( 'NONE', #270, 2.024999999999999911 ) ;
#321 = CARTESIAN_POINT ( 'NONE',  ( 1.563119784648299593, 0.000000000000000000, 0.8999999999999925837 ) ) ;
#322 = DIRECTION ( 'NONE',  ( 1.000000000000000000, 0.000000000000000000, -3.468071299249311414E-15 ) ) ;
#323 = CYLINDRICAL_SURFACE ( 'NONE', #52, 1.563119784648296706 ) ;
#324 = FACE_OUTER_BOUND ( 'NONE', #336, .T. ) ;
#325 = CIRCLE ( 'NONE', #373, 2.024999999999999911 ) ;
#326 = ORIENTED_EDGE ( 'NONE', *, *, #354, .F. ) ;
#327 = ORGANIZATION ( 'UNSPECIFIED', 'UNSPECIFIED', '' ) ;
#328 = DIRECTION ( 'NONE',  ( 1.000000000000000000, 0.000000000000000000, -3.744007502108220837E-15 ) ) ;
#329 = ORIENTED_EDGE ( 'NONE', *, *, #79, .T. ) ;
#330 = EDGE_CURVE ( 'NONE', #150, #150, #280, .T. ) ;
#331 = VERTEX_POINT ( 'NONE', #211 ) ;
#332 = APPROVAL ( #278, 'UNSPECIFIED' ) ;
#333 = FACE_OUTER_BOUND ( 'NONE', #299, .T. ) ;
#334 = DATE_AND_TIME ( #368, #374 ) ;
#335 = CARTESIAN_POINT ( 'NONE',  ( -6.484082674616028583E-33, 0.000000000000000000, -1.857115088223402103E-18 ) ) ;
#336 = EDGE_LOOP ( 'NONE', ( #15 ) ) ;
#337 = CARTESIAN_POINT ( 'NONE',  ( 1.990144363140586139E-13, 0.000000000000000000, 57.00000000000000000 ) ) ;
#338 = ORIENTED_EDGE ( 'NONE', *, *, #269, .F. ) ;
#339 = EDGE_LOOP ( 'NONE', ( #194 ) ) ;
#340 = DIRECTION ( 'NONE',  ( 3.491481338843133355E-15, -0.000000000000000000, 1.000000000000000000 ) ) ;
#341 = CIRCLE ( 'NONE', #152, 1.563119784648296706 ) ;
#342 = AXIS2_PLACEMENT_3D ( 'NONE', #84, #45, #322 ) ;
#343 = AXIS2_PLACEMENT_3D ( 'NONE', #158, #191, #56 ) ;
#344 = DIRECTION ( 'NONE',  ( -1.000000000000000000, 0.000000000000000000, 3.480155121558409533E-15 ) ) ;
#345 = ORIENTED_EDGE ( 'NONE', *, *, #305, .T. ) ;
#346 = APPROVAL ( #25, 'UNSPECIFIED' ) ;
#347 = CARTESIAN_POINT ( 'NONE',  ( 0.000000000000000000, 0.000000000000000000, 0.000000000000000000 ) ) ;
#348 = CARTESIAN_POINT ( 'NONE',  ( 1.563119784648302035, 0.000000000000000000, 1.599999999999991873 ) ) ;
#349 = AXIS2_PLACEMENT_3D ( 'NONE', #275, #361, #251 ) ;
#350 = DIRECTION ( 'NONE',  ( 1.000000000000000000, 0.000000000000000000, -3.491481338843132961E-15 ) ) ;
#351 = CARTESIAN_POINT ( 'NONE',  ( 1.990144363140586139E-13, 0.000000000000000000, 57.00000000000000000 ) ) ;
#352 = DESIGN_CONTEXT ( 'detailed design', #131, 'design' ) ;
#353 = FACE_OUTER_BOUND ( 'NONE', #210, .T. ) ;
#354 = EDGE_CURVE ( 'NONE', #121, #121, #319, .T. ) ;
#355 = EDGE_LOOP ( 'NONE', ( #286 ) ) ;
#356 = MECHANICAL_CONTEXT ( 'NONE', #371, 'mechanical' ) ;
#357 = ORIENTED_EDGE ( 'NONE', *, *, #89, .F. ) ;
#358 = FACE_OUTER_BOUND ( 'NONE', #222, .T. ) ;
#359 = CC_DESIGN_SECURITY_CLASSIFICATION ( #313, ( #212 ) ) ;
#360 = DIRECTION ( 'NONE',  ( -3.491481338843133355E-15, 0.000000000000000000, -1.000000000000000000 ) ) ;
#361 = DIRECTION ( 'NONE',  ( 3.491481338843133355E-15, -0.000000000000000000, 1.000000000000000000 ) ) ;
#362 = COORDINATED_UNIVERSAL_TIME_OFFSET ( 1, 0, .AHEAD. ) ;
#363 = DIRECTION ( 'NONE',  ( 1.000000000000000000, 0.000000000000000000, -3.491481338843133355E-15 ) ) ;
#364 = PERSON_AND_ORGANIZATION ( #75, #327 ) ;
#365 = DIRECTION ( 'NONE',  ( 3.491481338843133355E-15, -0.000000000000000000, 1.000000000000000000 ) ) ;
#366 = AXIS2_PLACEMENT_3D ( 'NONE', #172, #377, #225 ) ;
#367 = CIRCLE ( 'NONE', #349, 2.024999999999999911 ) ;
#368 = CALENDAR_DATE ( 2023, 27, 9 ) ;
#369 = ORIENTED_EDGE ( 'NONE', *, *, #79, .F. ) ;
#370 = DIRECTION ( 'NONE',  ( 1.000000000000000000, 0.000000000000000000, -4.625929269271490055E-15 ) ) ;
#371 = APPLICATION_CONTEXT ( 'configuration controlled 3d designs of mechanical parts and assemblies' ) ;
#372 = EDGE_LOOP ( 'NONE', ( #357 ) ) ;
#373 = AXIS2_PLACEMENT_3D ( 'NONE', #82, #154, #267 ) ;
#374 = LOCAL_TIME ( 7, 49, 9.000000000000000000, #55 ) ;
#375 = CC_DESIGN_PERSON_AND_ORGANIZATION_ASSIGNMENT ( #63, #192, ( #212 ) ) ;
#376 = FACE_OUTER_BOUND ( 'NONE', #285, .T. ) ;
#377 = DIRECTION ( 'NONE',  ( 3.491481338843133355E-15, -0.000000000000000000, 1.000000000000000000 ) ) ;
#378 = ADVANCED_FACE ( 'NONE', ( #309, #358 ), #38, .F. ) ;
#379 = FACE_OUTER_BOUND ( 'NONE', #141, .T. ) ;
#380 = VERTEX_POINT ( 'NONE', #348 ) ;
#381 = AXIS2_PLACEMENT_3D ( 'NONE', #148, #340, #114 ) ;
#382 = CC_DESIGN_APPROVAL ( #346, ( #77 ) ) ;
#383 = CYLINDRICAL_SURFACE ( 'NONE', #173, 2.024999999999999911 ) ;
#384 = DIRECTION ( 'NONE',  ( 1.000000000000000000, 0.000000000000000000, -4.439131263039118767E-15 ) ) ;
#385 = APPLICATION_PROTOCOL_DEFINITION ( 'international standard', 'config_control_design', 1994, #371 ) ;
#386 = ADVANCED_FACE ( 'NONE', ( #389, #392 ), #142, .T. ) ;
#387 = AXIS2_PLACEMENT_3D ( 'NONE', #317, #258, #145 ) ;
#388 = LOCAL_TIME ( 7, 49, 9.000000000000000000, #136 ) ;
#389 = FACE_OUTER_BOUND ( 'NONE', #310, .T. ) ;
#390 = EDGE_LOOP ( 'NONE', ( #9 ) ) ;
#391 = MANIFOLD_SOLID_BREP ( 'Corps-Déplacer/Copier1', #111 ) ;
#392 = FACE_BOUND ( 'NONE', #277, .T. ) ;
#393 = CIRCLE ( 'NONE', #342, 1.563119784648296706 ) ;
#394 = AXIS2_PLACEMENT_3D ( 'NONE', #271, #249, #363 ) ;
#395 = CARTESIAN_POINT ( 'NONE',  ( 2.025000000000001243, 0.000000000000000000, 0.3666666666666608676 ) ) ;
ENDSEC;
END-ISO-10303-21;
