ISO-10303-21;
HEADER;
FILE_DESCRIPTION (( 'STEP AP203' ),
    '1' );
FILE_NAME ('957921.step',
    '2021-10-08T08:12:59',
    ( '' ),
    ( '' ),
    'SwSTEP 2.0',
    'SolidWorks 2019',
    '' );
FILE_SCHEMA (( 'CONFIG_CONTROL_DESIGN' ));
ENDSEC;

DATA;
#1 = DIRECTION ( 'NONE',  ( 0.0000000000000000000, 1.000000000000000000, 0.0000000000000000000 ) ) ;
#2 = ADVANCED_FACE ( 'NONE', ( #101, #184 ), #203, .T. ) ;
#3 = DIRECTION ( 'NONE',  ( -5.664499836433058579E-31, -1.000000000000000000, -1.594414959537509885E-16 ) ) ;
#4 = CC_DESIGN_DATE_AND_TIME_ASSIGNMENT ( #205, #78, ( #45 ) ) ;
#5 = CIRCLE ( 'NONE', #156, 0.6800000000000014921 ) ;
#6 = FACE_OUTER_BOUND ( 'NONE', #164, .T. ) ;
#7 = CONICAL_SURFACE ( 'NONE', #40, 0.6799999999999986056, 1.047197551196592746 ) ;
#8 = FACE_OUTER_BOUND ( 'NONE', #117, .T. ) ;
#9 =( NAMED_UNIT ( * ) SI_UNIT ( $, .STERADIAN. ) SOLID_ANGLE_UNIT ( ) );
#10 = ORIENTED_EDGE ( 'NONE', *, *, #26, .T. ) ;
#11 = PERSON_AND_ORGANIZATION ( #142, #54 ) ;
#12 = CIRCLE ( 'NONE', #201, 0.5500000000000000444 ) ;
#13 = PERSON_AND_ORGANIZATION_ROLE ( 'design_owner' ) ;
#14 = APPROVAL ( #166, 'UNSPECIFIED' ) ;
#15 = APPROVAL_DATE_TIME ( #162, #133 ) ;
#16 = PERSON_AND_ORGANIZATION ( #142, #54 ) ;
#17 = CARTESIAN_POINT ( 'NONE',  ( 3.952791061012192525E-14, -1.386452468387183963E-15, 11.32124355652981862 ) ) ;
#18 = EDGE_LOOP ( 'NONE', ( #190 ) ) ;
#19 = FACE_OUTER_BOUND ( 'NONE', #123, .T. ) ;
#20 = CARTESIAN_POINT ( 'NONE',  ( 3.910459099504309989E-14, -2.073431719650264034E-31, 11.20000000000000107 ) ) ;
#21 = EDGE_CURVE ( 'NONE', #55, #55, #111, .T. ) ;
#22 =( LENGTH_UNIT ( ) NAMED_UNIT ( * ) SI_UNIT ( .MILLI., .METRE. ) );
#23 = APPROVAL_PERSON_ORGANIZATION ( #183, #14, #60 ) ;
#24 = ORIENTED_EDGE ( 'NONE', *, *, #216, .F. ) ;
#25 =( NAMED_UNIT ( * ) PLANE_ANGLE_UNIT ( ) SI_UNIT ( $, .RADIAN. ) );
#26 = EDGE_CURVE ( 'NONE', #36, #36, #32, .T. ) ;
#27 = DATE_TIME_ROLE ( 'classification_date' ) ;
#28 = PRODUCT_RELATED_PRODUCT_CATEGORY ( 'detail', '', ( #124 ) ) ;
#29 = AXIS2_PLACEMENT_3D ( 'NONE', #20, #53, #195 ) ;
#30 = COORDINATED_UNIVERSAL_TIME_OFFSET ( 1, 0, .AHEAD. ) ;
#31 = PERSON_AND_ORGANIZATION_ROLE ( 'design_supplier' ) ;
#32 = CIRCLE ( 'NONE', #77, 0.6799999999999986056 ) ;
#33 = CARTESIAN_POINT ( 'NONE',  ( 1.047444401652940007E-13, -3.673940397442059178E-15, 30.00000000000000000 ) ) ;
#34 = AXIS2_PLACEMENT_3D ( 'NONE', #112, #145, #215 ) ;
#35 = DIRECTION ( 'NONE',  ( -3.491481338843133355E-15, 1.224646799147353207E-16, -1.000000000000000000 ) ) ;
#36 = VERTEX_POINT ( 'NONE', #107 ) ;
#37 = DIRECTION ( 'NONE',  ( 3.491481338843133355E-15, -1.224646799147353207E-16, 1.000000000000000000 ) ) ;
#38 = CARTESIAN_POINT ( 'NONE',  ( 3.952791061012192525E-14, 0.7499999999999963363, 11.32124355652981862 ) ) ;
#39 = CARTESIAN_POINT ( 'NONE',  ( 3.910459099504309989E-14, 0.6800000000000000488, 11.20000000000000107 ) ) ;
#40 = AXIS2_PLACEMENT_3D ( 'NONE', #121, #168, #3 ) ;
#41 = CC_DESIGN_PERSON_AND_ORGANIZATION_ASSIGNMENT ( #46, #13, ( #124 ) ) ;
#42 = CALENDAR_DATE ( 2021, 8, 10 ) ;
#43 = AXIS2_PLACEMENT_3D ( 'NONE', #64, #85, #211 ) ;
#44 = PERSON_AND_ORGANIZATION_ROLE ( 'creator' ) ;
#45 = PRODUCT_DEFINITION ( 'UNKNOWN', '', #119, #128 ) ;
#46 = PERSON_AND_ORGANIZATION ( #142, #54 ) ;
#47 = PERSON_AND_ORGANIZATION ( #142, #54 ) ;
#48 = APPROVAL_PERSON_ORGANIZATION ( #47, #133, #114 ) ;
#49 = EDGE_LOOP ( 'NONE', ( #104 ) ) ;
#50 = EDGE_LOOP ( 'NONE', ( #147 ) ) ;
#51 = AXIS2_PLACEMENT_3D ( 'NONE', #68, #213, #146 ) ;
#52 = EDGE_LOOP ( 'NONE', ( #177 ) ) ;
#53 = DIRECTION ( 'NONE',  ( 3.491481338843133355E-15, -1.224646799147353207E-16, 1.000000000000000000 ) ) ;
#54 = ORGANIZATION ( 'UNSPECIFIED', 'UNSPECIFIED', '' ) ;
#55 = VERTEX_POINT ( 'NONE', #38 ) ;
#56 = CARTESIAN_POINT ( 'NONE',  ( 1.040461438975253740E-13, 0.7499999999999963363, 29.80000000000000071 ) ) ;
#57 = PLANE ( 'NONE',  #71 ) ;
#58 = AXIS2_PLACEMENT_3D ( 'NONE', #188, #35, #172 ) ;
#59 = DATE_AND_TIME ( #62, #134 ) ;
#60 = APPROVAL_ROLE ( '' ) ;
#61 = CC_DESIGN_APPROVAL ( #133, ( #45 ) ) ;
#62 = CALENDAR_DATE ( 2021, 8, 10 ) ;
#63 = SECURITY_CLASSIFICATION ( '', '', #223 ) ;
#64 = CARTESIAN_POINT ( 'NONE',  ( 3.952791061012192525E-14, -1.386452468387183963E-15, 11.32124355652981862 ) ) ;
#65 = CARTESIAN_POINT ( 'NONE',  ( 1.040461438975253740E-13, -3.649447461459112464E-15, 29.80000000000000071 ) ) ;
#66 = MANIFOLD_SOLID_BREP ( 'Corps-Déplacer/Copier1[2]', #209 ) ;
#67 = CARTESIAN_POINT ( 'NONE',  ( 1.047444401652940007E-13, -3.673940397442059178E-15, 30.00000000000000000 ) ) ;
#68 = CARTESIAN_POINT ( 'NONE',  ( 0.0000000000000000000, 0.0000000000000000000, 0.0000000000000000000 ) ) ;
#69 = CC_DESIGN_PERSON_AND_ORGANIZATION_ASSIGNMENT ( #16, #31, ( #119 ) ) ;
#70 = APPROVAL_PERSON_ORGANIZATION ( #167, #163, #80 ) ;
#71 = AXIS2_PLACEMENT_3D ( 'NONE', #198, #110, #159 ) ;
#72 = APPLICATION_CONTEXT ( 'configuration controlled 3d designs of mechanical parts and assemblies' ) ;
#73 = CARTESIAN_POINT ( 'NONE',  ( 3.910459099504309989E-14, 0.6800000000000000488, 11.20000000000000107 ) ) ;
#74 = UNCERTAINTY_MEASURE_WITH_UNIT (LENGTH_MEASURE( 1.000000000000000082E-05 ), #22, 'distance_accuracy_value', 'NONE');
#75 = ORIENTED_EDGE ( 'NONE', *, *, #21, .F. ) ;
#76 = APPROVAL_STATUS ( 'not_yet_approved' ) ;
#77 = AXIS2_PLACEMENT_3D ( 'NONE', #171, #153, #169 ) ;
#78 = DATE_TIME_ROLE ( 'creation_date' ) ;
#79 = APPROVAL_DATE_TIME ( #97, #14 ) ;
#80 = APPROVAL_ROLE ( '' ) ;
#81 = ADVANCED_FACE ( 'NONE', ( #19 ), #7, .T. ) ;
#82 = CC_DESIGN_PERSON_AND_ORGANIZATION_ASSIGNMENT ( #113, #180, ( #63 ) ) ;
#83 = ORIENTED_EDGE ( 'NONE', *, *, #95, .T. ) ;
#84 =( GEOMETRIC_REPRESENTATION_CONTEXT ( 3 ) GLOBAL_UNCERTAINTY_ASSIGNED_CONTEXT ( ( #74 ) ) GLOBAL_UNIT_ASSIGNED_CONTEXT ( ( #22, #25, #9 ) ) REPRESENTATION_CONTEXT ( 'NONE', 'WORKASPACE' ) );
#85 = DIRECTION ( 'NONE',  ( -3.491481338843133355E-15, 1.224646799147353207E-16, -1.000000000000000000 ) ) ;
#86 = EDGE_CURVE ( 'NONE', #143, #143, #12, .T. ) ;
#87 = FACE_OUTER_BOUND ( 'NONE', #49, .T. ) ;
#88 = DIRECTION ( 'NONE',  ( 0.0000000000000000000, 1.000000000000000000, 0.0000000000000000000 ) ) ;
#89 = VERTEX_POINT ( 'NONE', #39 ) ;
#90 = CC_DESIGN_PERSON_AND_ORGANIZATION_ASSIGNMENT ( #11, #44, ( #45 ) ) ;
#91 = DIRECTION ( 'NONE',  ( -3.491481338843133355E-15, 1.224646799147353207E-16, -1.000000000000000000 ) ) ;
#92 = CC_DESIGN_SECURITY_CLASSIFICATION ( #63, ( #119 ) ) ;
#93 = FACE_OUTER_BOUND ( 'NONE', #199, .T. ) ;
#94 = ORIENTED_EDGE ( 'NONE', *, *, #86, .F. ) ;
#95 = EDGE_CURVE ( 'NONE', #178, #178, #222, .T. ) ;
#96 = CC_DESIGN_APPROVAL ( #14, ( #119 ) ) ;
#97 = DATE_AND_TIME ( #42, #165 ) ;
#98 = COORDINATED_UNIVERSAL_TIME_OFFSET ( 1, 0, .AHEAD. ) ;
#99 = AXIS2_PLACEMENT_3D ( 'NONE', #217, #91, #174 ) ;
#100 = DIRECTION ( 'NONE',  ( 0.0000000000000000000, 1.000000000000000000, 0.0000000000000000000 ) ) ;
#101 = FACE_OUTER_BOUND ( 'NONE', #179, .T. ) ;
#102 = ADVANCED_FACE ( 'NONE', ( #138, #87 ), #197, .T. ) ;
#103 = DIRECTION ( 'NONE',  ( -3.491481338843133355E-15, 1.224646799147353207E-16, -1.000000000000000000 ) ) ;
#104 = ORIENTED_EDGE ( 'NONE', *, *, #21, .T. ) ;
#105 = ADVANCED_FACE ( 'NONE', ( #118, #185 ), #154, .T. ) ;
#106 = ORIENTED_EDGE ( 'NONE', *, *, #86, .T. ) ;
#107 = CARTESIAN_POINT ( 'NONE',  ( 1.370749229779127209E-15, 0.6799999999999986056, 0.3925981830489493341 ) ) ;
#108 = PLANE ( 'NONE',  #29 ) ;
#109 = PRODUCT_DEFINITION_SHAPE ( 'NONE', 'NONE',  #45 ) ;
#110 = DIRECTION ( 'NONE',  ( -3.491481338843133355E-15, 1.224646799147353207E-16, -1.000000000000000000 ) ) ;
#111 = CIRCLE ( 'NONE', #43, 0.7499999999999977796 ) ;
#112 = CARTESIAN_POINT ( 'NONE',  ( 0.0000000000000000000, 0.0000000000000000000, 0.0000000000000000000 ) ) ;
#113 = PERSON_AND_ORGANIZATION ( #142, #54 ) ;
#114 = APPROVAL_ROLE ( '' ) ;
#115 = LOCAL_TIME ( 10, 12, 59.00000000000000000, #30 ) ;
#116 = CALENDAR_DATE ( 2021, 8, 10 ) ;
#117 = EDGE_LOOP ( 'NONE', ( #94 ) ) ;
#118 = FACE_OUTER_BOUND ( 'NONE', #52, .T. ) ;
#119 = PRODUCT_DEFINITION_FORMATION_WITH_SPECIFIED_SOURCE ( 'ANY', '', #124, .NOT_KNOWN. ) ;
#120 = ADVANCED_FACE ( 'NONE', ( #6, #93 ), #212, .T. ) ;
#121 = CARTESIAN_POINT ( 'NONE',  ( 1.370749229779126814E-15, -4.807941082219623636E-17, 0.3925981830489492230 ) ) ;
#122 = DIRECTION ( 'NONE',  ( -3.491481338843133355E-15, 1.224646799147353207E-16, -1.000000000000000000 ) ) ;
#123 = EDGE_LOOP ( 'NONE', ( #10 ) ) ;
#124 = PRODUCT ( '957921', '957921', '', ( #204 ) ) ;
#125 = CARTESIAN_POINT ( 'NONE',  ( 3.910459099504309989E-14, -2.073431719650264034E-31, 11.20000000000000107 ) ) ;
#126 = ADVANCED_FACE ( 'NONE', ( #127 ), #161, .T. ) ;
#127 = FACE_OUTER_BOUND ( 'NONE', #18, .T. ) ;
#128 = DESIGN_CONTEXT ( 'detailed design', #210, 'design' ) ;
#129 = CLOSED_SHELL ( 'NONE', ( #137, #102, #120, #2, #219 ) ) ;
#130 = APPLICATION_PROTOCOL_DEFINITION ( 'international standard', 'config_control_design', 1994, #210 ) ;
#131 = APPROVAL_DATE_TIME ( #59, #163 ) ;
#132 = DATE_AND_TIME ( #221, #170 ) ;
#133 = APPROVAL ( #202, 'UNSPECIFIED' ) ;
#134 = LOCAL_TIME ( 10, 12, 59.00000000000000000, #220 ) ;
#135 = SHAPE_DEFINITION_REPRESENTATION ( #109, #155 ) ;
#136 = AXIS2_PLACEMENT_3D ( 'NONE', #125, #37, #157 ) ;
#137 = ADVANCED_FACE ( 'NONE', ( #141 ), #108, .F. ) ;
#138 = FACE_BOUND ( 'NONE', #140, .T. ) ;
#139 = DIRECTION ( 'NONE',  ( 3.491481338843133355E-15, -1.224646799147353207E-16, 1.000000000000000000 ) ) ;
#140 = EDGE_LOOP ( 'NONE', ( #24 ) ) ;
#141 = FACE_OUTER_BOUND ( 'NONE', #50, .T. ) ;
#142 = PERSON ( 'UNSPECIFIED', 'UNSPECIFIED', 'UNSPECIFIED', ('UNSPECIFIED'), ('UNSPECIFIED'), ('UNSPECIFIED') ) ;
#143 = VERTEX_POINT ( 'NONE', #193 ) ;
#144 = EDGE_CURVE ( 'NONE', #175, #175, #160, .T. ) ;
#145 = DIRECTION ( 'NONE',  ( 0.0000000000000000000, 0.0000000000000000000, 1.000000000000000000 ) ) ;
#146 = DIRECTION ( 'NONE',  ( 4.275831445896959482E-31, 1.000000000000000000, 1.224646799147353207E-16 ) ) ;
#147 = ORIENTED_EDGE ( 'NONE', *, *, #216, .T. ) ;
#148 = PERSON_AND_ORGANIZATION ( #142, #54 ) ;
#149 = PERSON_AND_ORGANIZATION_ROLE ( 'creator' ) ;
#150 = COORDINATED_UNIVERSAL_TIME_OFFSET ( 1, 0, .AHEAD. ) ;
#151 = DIRECTION ( 'NONE',  ( -3.491481338843133355E-15, 1.224646799147353207E-16, -1.000000000000000000 ) ) ;
#152 = DIRECTION ( 'NONE',  ( 0.0000000000000000000, -1.000000000000000000, 0.0000000000000000000 ) ) ;
#153 = DIRECTION ( 'NONE',  ( -3.491481338843133355E-15, 1.224646799147353207E-16, -1.000000000000000000 ) ) ;
#154 = CYLINDRICAL_SURFACE ( 'NONE', #58, 0.6800000000000000488 ) ;
#155 = ADVANCED_BREP_SHAPE_REPRESENTATION ( '957921', ( #218, #66, #34 ), #84 ) ;
#156 = AXIS2_PLACEMENT_3D ( 'NONE', #158, #122, #189 ) ;
#157 = DIRECTION ( 'NONE',  ( -4.275831445896958607E-31, -1.000000000000000000, -1.224646799147353207E-16 ) ) ;
#158 = CARTESIAN_POINT ( 'NONE',  ( 3.910459099504309989E-14, -1.371604415045035710E-15, 11.20000000000000107 ) ) ;
#159 = DIRECTION ( 'NONE',  ( 4.275831445896958607E-31, 1.000000000000000000, 1.224646799147353207E-16 ) ) ;
#160 = CIRCLE ( 'NONE', #99, 0.6800000000000014921 ) ;
#161 = PLANE ( 'NONE',  #136 ) ;
#162 = DATE_AND_TIME ( #116, #176 ) ;
#163 = APPROVAL ( #76, 'UNSPECIFIED' ) ;
#164 = EDGE_LOOP ( 'NONE', ( #75 ) ) ;
#165 = LOCAL_TIME ( 10, 12, 59.00000000000000000, #150 ) ;
#166 = APPROVAL_STATUS ( 'not_yet_approved' ) ;
#167 = PERSON_AND_ORGANIZATION ( #142, #54 ) ;
#168 = DIRECTION ( 'NONE',  ( 3.491481338843133355E-15, -1.224646799147353207E-16, 1.000000000000000000 ) ) ;
#169 = DIRECTION ( 'NONE',  ( 5.664499836433058579E-31, 1.000000000000000000, 1.594414959537509885E-16 ) ) ;
#170 = LOCAL_TIME ( 10, 12, 59.00000000000000000, #98 ) ;
#171 = CARTESIAN_POINT ( 'NONE',  ( 1.370749229779126814E-15, -4.807941082219623636E-17, 0.3925981830489492230 ) ) ;
#172 = DIRECTION ( 'NONE',  ( 4.275831445896958607E-31, 1.000000000000000000, 1.224646799147353207E-16 ) ) ;
#173 = AXIS2_PLACEMENT_3D ( 'NONE', #33, #207, #100 ) ;
#174 = DIRECTION ( 'NONE',  ( 0.0000000000000000000, 1.000000000000000000, 0.0000000000000000000 ) ) ;
#175 = VERTEX_POINT ( 'NONE', #73 ) ;
#176 = LOCAL_TIME ( 10, 12, 59.00000000000000000, #181 ) ;
#177 = ORIENTED_EDGE ( 'NONE', *, *, #26, .F. ) ;
#178 = VERTEX_POINT ( 'NONE', #56 ) ;
#179 = EDGE_LOOP ( 'NONE', ( #192 ) ) ;
#180 = PERSON_AND_ORGANIZATION_ROLE ( 'classification_officer' ) ;
#181 = COORDINATED_UNIVERSAL_TIME_OFFSET ( 1, 0, .AHEAD. ) ;
#182 = AXIS2_PLACEMENT_3D ( 'NONE', #17, #139, #152 ) ;
#183 = PERSON_AND_ORGANIZATION ( #142, #54 ) ;
#184 = FACE_BOUND ( 'NONE', #206, .T. ) ;
#185 = FACE_OUTER_BOUND ( 'NONE', #196, .T. ) ;
#186 = CC_DESIGN_APPROVAL ( #163, ( #63 ) ) ;
#187 = ORIENTED_EDGE ( 'NONE', *, *, #144, .T. ) ;
#188 = CARTESIAN_POINT ( 'NONE',  ( 0.0000000000000000000, 0.0000000000000000000, 0.0000000000000000000 ) ) ;
#189 = DIRECTION ( 'NONE',  ( 0.0000000000000000000, 1.000000000000000000, 0.0000000000000000000 ) ) ;
#190 = ORIENTED_EDGE ( 'NONE', *, *, #144, .F. ) ;
#191 = APPLICATION_PROTOCOL_DEFINITION ( 'international standard', 'config_control_design', 1994, #72 ) ;
#192 = ORIENTED_EDGE ( 'NONE', *, *, #95, .F. ) ;
#193 = CARTESIAN_POINT ( 'NONE',  ( 1.047444401652940007E-13, 0.5499999999999963807, 30.00000000000000000 ) ) ;
#194 = CC_DESIGN_PERSON_AND_ORGANIZATION_ASSIGNMENT ( #148, #149, ( #119 ) ) ;
#195 = DIRECTION ( 'NONE',  ( -4.275831445896958607E-31, -1.000000000000000000, -1.224646799147353207E-16 ) ) ;
#196 = EDGE_LOOP ( 'NONE', ( #187 ) ) ;
#197 = CONICAL_SURFACE ( 'NONE', #182, 0.7499999999999977796, 0.5235987755982913772 ) ;
#198 = CARTESIAN_POINT ( 'NONE',  ( 1.047444401652940007E-13, 4.124339402320052999E-33, 30.00000000000000000 ) ) ;
#199 = EDGE_LOOP ( 'NONE', ( #83 ) ) ;
#200 = CALENDAR_DATE ( 2021, 8, 10 ) ;
#201 = AXIS2_PLACEMENT_3D ( 'NONE', #67, #151, #1 ) ;
#202 = APPROVAL_STATUS ( 'not_yet_approved' ) ;
#203 = CONICAL_SURFACE ( 'NONE', #173, 0.5500000000000000444, 0.7853981633974512766 ) ;
#204 = MECHANICAL_CONTEXT ( 'NONE', #72, 'mechanical' ) ;
#205 = DATE_AND_TIME ( #200, #115 ) ;
#206 = EDGE_LOOP ( 'NONE', ( #106 ) ) ;
#207 = DIRECTION ( 'NONE',  ( -3.491481338843133355E-15, 1.224646799147353207E-16, -1.000000000000000000 ) ) ;
#208 = CC_DESIGN_DATE_AND_TIME_ASSIGNMENT ( #132, #27, ( #63 ) ) ;
#209 = CLOSED_SHELL ( 'NONE', ( #81, #105, #126 ) ) ;
#210 = APPLICATION_CONTEXT ( 'configuration controlled 3d designs of mechanical parts and assemblies' ) ;
#211 = DIRECTION ( 'NONE',  ( 0.0000000000000000000, 1.000000000000000000, 0.0000000000000000000 ) ) ;
#212 = CYLINDRICAL_SURFACE ( 'NONE', #51, 0.7499999999999988898 ) ;
#213 = DIRECTION ( 'NONE',  ( -3.491481338843133355E-15, 1.224646799147353207E-16, -1.000000000000000000 ) ) ;
#214 = AXIS2_PLACEMENT_3D ( 'NONE', #65, #103, #88 ) ;
#215 = DIRECTION ( 'NONE',  ( 1.000000000000000000, 0.0000000000000000000, 0.0000000000000000000 ) ) ;
#216 = EDGE_CURVE ( 'NONE', #89, #89, #5, .T. ) ;
#217 = CARTESIAN_POINT ( 'NONE',  ( 3.910459099504309989E-14, -1.371604415045035710E-15, 11.20000000000000107 ) ) ;
#218 = MANIFOLD_SOLID_BREP ( 'Corps-Déplacer/Copier1[1]', #129 ) ;
#219 = ADVANCED_FACE ( 'NONE', ( #8 ), #57, .F. ) ;
#220 = COORDINATED_UNIVERSAL_TIME_OFFSET ( 1, 0, .AHEAD. ) ;
#221 = CALENDAR_DATE ( 2021, 8, 10 ) ;
#222 = CIRCLE ( 'NONE', #214, 0.7500000000000000000 ) ;
#223 = SECURITY_CLASSIFICATION_LEVEL ( 'unclassified' ) ;
ENDSEC;
END-ISO-10303-21;
