ISO-10303-21;
HEADER;
FILE_DESCRIPTION (( 'STEP AP203' ),
    '1' );
FILE_NAME ('957916.step',
    '2021-10-08T08:12:58',
    ( '' ),
    ( '' ),
    'SwSTEP 2.0',
    'SolidWorks 2019',
    '' );
FILE_SCHEMA (( 'CONFIG_CONTROL_DESIGN' ));
ENDSEC;

DATA;
#1 = PERSON_AND_ORGANIZATION_ROLE ( 'design_owner' ) ;
#2 = AXIS2_PLACEMENT_3D ( 'NONE', #162, #44, #147 ) ;
#3 = PERSON_AND_ORGANIZATION_ROLE ( 'design_supplier' ) ;
#4 = APPROVAL ( #49, 'UNSPECIFIED' ) ;
#5 = APPROVAL_ROLE ( '' ) ;
#6 = AXIS2_PLACEMENT_3D ( 'NONE', #216, #61, #119 ) ;
#7 = CARTESIAN_POINT ( 'NONE',  ( 3.961862195621025038E-14, -1.389634194103358898E-15, 11.34722431864335235 ) ) ;
#8 = FACE_BOUND ( 'NONE', #30, .T. ) ;
#9 = DIRECTION ( 'NONE',  ( -4.275831445896958607E-31, -1.000000000000000000, -1.224646799147353207E-16 ) ) ;
#10 = PLANE ( 'NONE',  #12 ) ;
#11 = CARTESIAN_POINT ( 'NONE',  ( 1.340512114416351771E-15, -4.701883558347131540E-17, 0.3839379290111047394 ) ) ;
#12 = AXIS2_PLACEMENT_3D ( 'NONE', #104, #41, #9 ) ;
#13 = EDGE_LOOP ( 'NONE', ( #40 ) ) ;
#14 = EDGE_CURVE ( 'NONE', #143, #143, #116, .T. ) ;
#15 = PERSON_AND_ORGANIZATION ( #153, #175 ) ;
#16 = AXIS2_PLACEMENT_3D ( 'NONE', #213, #63, #128 ) ;
#17 = DATE_TIME_ROLE ( 'creation_date' ) ;
#18 = DIRECTION ( 'NONE',  ( 0.0000000000000000000, 1.000000000000000000, 0.0000000000000000000 ) ) ;
#19 = LOCAL_TIME ( 10, 12, 58.00000000000000000, #137 ) ;
#20 = DIRECTION ( 'NONE',  ( -3.491481338843133355E-15, 1.224646799147353207E-16, -1.000000000000000000 ) ) ;
#21 = CIRCLE ( 'NONE', #198, 0.6649999999999994804 ) ;
#22 = FACE_OUTER_BOUND ( 'NONE', #48, .T. ) ;
#23 = CARTESIAN_POINT ( 'NONE',  ( 3.961862195621025038E-14, -1.389634194103358898E-15, 11.34722431864335235 ) ) ;
#24 = UNCERTAINTY_MEASURE_WITH_UNIT (LENGTH_MEASURE( 1.000000000000000082E-05 ), #32, 'distance_accuracy_value', 'NONE');
#25 = PERSON_AND_ORGANIZATION_ROLE ( 'classification_officer' ) ;
#26 = FACE_OUTER_BOUND ( 'NONE', #204, .T. ) ;
#27 = CYLINDRICAL_SURFACE ( 'NONE', #28, 0.6649999999999990363 ) ;
#28 = AXIS2_PLACEMENT_3D ( 'NONE', #165, #102, #115 ) ;
#29 = APPROVAL_PERSON_ORGANIZATION ( #157, #124, #5 ) ;
#30 = EDGE_LOOP ( 'NONE', ( #117 ) ) ;
#31 = PRODUCT_DEFINITION_FORMATION_WITH_SPECIFIED_SOURCE ( 'ANY', '', #211, .NOT_KNOWN. ) ;
#32 =( LENGTH_UNIT ( ) NAMED_UNIT ( * ) SI_UNIT ( .MILLI., .METRE. ) );
#33 = CALENDAR_DATE ( 2021, 8, 10 ) ;
#34 = LOCAL_TIME ( 10, 12, 58.00000000000000000, #100 ) ;
#35 = PERSON_AND_ORGANIZATION_ROLE ( 'creator' ) ;
#36 = CIRCLE ( 'NONE', #145, 0.7499999999999977796 ) ;
#37 = COORDINATED_UNIVERSAL_TIME_OFFSET ( 1, 0, .AHEAD. ) ;
#38 = CC_DESIGN_APPROVAL ( #4, ( #67 ) ) ;
#39 = DIRECTION ( 'NONE',  ( 0.0000000000000000000, -1.000000000000000000, 0.0000000000000000000 ) ) ;
#40 = ORIENTED_EDGE ( 'NONE', *, *, #136, .T. ) ;
#41 = DIRECTION ( 'NONE',  ( 3.491481338843133355E-15, -1.224646799147353207E-16, 1.000000000000000000 ) ) ;
#42 = CC_DESIGN_DATE_AND_TIME_ASSIGNMENT ( #107, #205, ( #67 ) ) ;
#43 = MANIFOLD_SOLID_BREP ( 'Corps-Déplacer/Copier1[1]', #177 ) ;
#44 = DIRECTION ( 'NONE',  ( -3.491481338843133355E-15, 1.224646799147353207E-16, -1.000000000000000000 ) ) ;
#45 = CARTESIAN_POINT ( 'NONE',  ( 1.340512114416351771E-15, -4.701883558347131540E-17, 0.3839379290111047394 ) ) ;
#46 = MANIFOLD_SOLID_BREP ( 'Corps-Déplacer/Copier1[2]', #76 ) ;
#47 = EDGE_LOOP ( 'NONE', ( #78 ) ) ;
#48 = EDGE_LOOP ( 'NONE', ( #109 ) ) ;
#49 = APPROVAL_STATUS ( 'not_yet_approved' ) ;
#50 = EDGE_CURVE ( 'NONE', #112, #112, #21, .T. ) ;
#51 = ADVANCED_BREP_SHAPE_REPRESENTATION ( '957916', ( #43, #46, #94 ), #53 ) ;
#52 = VERTEX_POINT ( 'NONE', #91 ) ;
#53 =( GEOMETRIC_REPRESENTATION_CONTEXT ( 3 ) GLOBAL_UNCERTAINTY_ASSIGNED_CONTEXT ( ( #24 ) ) GLOBAL_UNIT_ASSIGNED_CONTEXT ( ( #32, #71, #189 ) ) REPRESENTATION_CONTEXT ( 'NONE', 'WORKASPACE' ) );
#54 = COORDINATED_UNIVERSAL_TIME_OFFSET ( 1, 0, .AHEAD. ) ;
#55 = ADVANCED_FACE ( 'NONE', ( #127, #214 ), #201, .T. ) ;
#56 = DIRECTION ( 'NONE',  ( -3.491481338843133355E-15, 1.224646799147353207E-16, -1.000000000000000000 ) ) ;
#57 = CIRCLE ( 'NONE', #16, 0.7500000000000000000 ) ;
#58 = APPROVAL_STATUS ( 'not_yet_approved' ) ;
#59 = CIRCLE ( 'NONE', #135, 0.6649999999999985922 ) ;
#60 = ADVANCED_FACE ( 'NONE', ( #181, #26 ), #97, .T. ) ;
#61 = DIRECTION ( 'NONE',  ( -3.491481338843133355E-15, 1.224646799147353207E-16, -1.000000000000000000 ) ) ;
#62 = AXIS2_PLACEMENT_3D ( 'NONE', #217, #139, #18 ) ;
#63 = DIRECTION ( 'NONE',  ( -3.491481338843133355E-15, 1.224646799147353207E-16, -1.000000000000000000 ) ) ;
#64 = PERSON_AND_ORGANIZATION ( #153, #175 ) ;
#65 = PLANE ( 'NONE',  #172 ) ;
#66 = DIRECTION ( 'NONE',  ( 3.491481338843133355E-15, -1.224646799147353207E-16, 1.000000000000000000 ) ) ;
#67 = SECURITY_CLASSIFICATION ( '', '', #144 ) ;
#68 = DIRECTION ( 'NONE',  ( 0.0000000000000000000, 1.000000000000000000, 0.0000000000000000000 ) ) ;
#69 = APPLICATION_CONTEXT ( 'configuration controlled 3d designs of mechanical parts and assemblies' ) ;
#70 = APPROVAL_ROLE ( '' ) ;
#71 =( NAMED_UNIT ( * ) PLANE_ANGLE_UNIT ( ) SI_UNIT ( $, .RADIAN. ) );
#72 = VERTEX_POINT ( 'NONE', #221 ) ;
#73 = DATE_AND_TIME ( #125, #133 ) ;
#74 = CIRCLE ( 'NONE', #62, 0.5500000000000000444 ) ;
#75 = APPLICATION_CONTEXT ( 'configuration controlled 3d designs of mechanical parts and assemblies' ) ;
#76 = CLOSED_SHELL ( 'NONE', ( #161, #96, #200 ) ) ;
#77 = FACE_OUTER_BOUND ( 'NONE', #150, .T. ) ;
#78 = ORIENTED_EDGE ( 'NONE', *, *, #99, .T. ) ;
#79 = CARTESIAN_POINT ( 'NONE',  ( 3.910459099504309358E-14, 4.986701277350651366E-33, 11.19999999999999929 ) ) ;
#80 = DESIGN_CONTEXT ( 'detailed design', #75, 'design' ) ;
#81 = AXIS2_PLACEMENT_3D ( 'NONE', #23, #66, #39 ) ;
#82 = DIRECTION ( 'NONE',  ( -3.491481338843133355E-15, 1.224646799147353207E-16, -1.000000000000000000 ) ) ;
#83 = FACE_OUTER_BOUND ( 'NONE', #212, .T. ) ;
#84 = LOCAL_TIME ( 10, 12, 58.00000000000000000, #37 ) ;
#85 = ORIENTED_EDGE ( 'NONE', *, *, #14, .F. ) ;
#86 = CC_DESIGN_PERSON_AND_ORGANIZATION_ASSIGNMENT ( #64, #3, ( #31 ) ) ;
#87 = CONICAL_SURFACE ( 'NONE', #129, 0.6649999999999985922, 1.047197551196592746 ) ;
#88 = CALENDAR_DATE ( 2021, 8, 10 ) ;
#89 = SHAPE_DEFINITION_REPRESENTATION ( #180, #51 ) ;
#90 = ORIENTED_EDGE ( 'NONE', *, *, #50, .F. ) ;
#91 = CARTESIAN_POINT ( 'NONE',  ( 3.961862195621025038E-14, 0.7499999999999963363, 11.34722431864335235 ) ) ;
#92 = APPROVAL_ROLE ( '' ) ;
#93 = PERSON_AND_ORGANIZATION ( #153, #175 ) ;
#94 = AXIS2_PLACEMENT_3D ( 'NONE', #123, #140, #208 ) ;
#95 = APPROVAL_DATE_TIME ( #73, #132 ) ;
#96 = ADVANCED_FACE ( 'NONE', ( #22, #131 ), #27, .T. ) ;
#97 = CONICAL_SURFACE ( 'NONE', #81, 0.7499999999999977796, 0.5235987755982957070 ) ;
#98 = DIRECTION ( 'NONE',  ( 0.0000000000000000000, 1.000000000000000000, 0.0000000000000000000 ) ) ;
#99 = EDGE_CURVE ( 'NONE', #110, #110, #59, .T. ) ;
#100 = COORDINATED_UNIVERSAL_TIME_OFFSET ( 1, 0, .AHEAD. ) ;
#101 = CONICAL_SURFACE ( 'NONE', #2, 0.5500000000000000444, 0.7853981633974512766 ) ;
#102 = DIRECTION ( 'NONE',  ( -3.491481338843133355E-15, 1.224646799147353207E-16, -1.000000000000000000 ) ) ;
#103 = CALENDAR_DATE ( 2021, 8, 10 ) ;
#104 = CARTESIAN_POINT ( 'NONE',  ( 3.910459099504309358E-14, 4.986701277350651366E-33, 11.19999999999999929 ) ) ;
#105 = CC_DESIGN_APPROVAL ( #132, ( #170 ) ) ;
#106 = ORIENTED_EDGE ( 'NONE', *, *, #209, .F. ) ;
#107 = DATE_AND_TIME ( #88, #84 ) ;
#108 = ORIENTED_EDGE ( 'NONE', *, *, #136, .F. ) ;
#109 = ORIENTED_EDGE ( 'NONE', *, *, #99, .F. ) ;
#110 = VERTEX_POINT ( 'NONE', #156 ) ;
#111 = DATE_AND_TIME ( #33, #114 ) ;
#112 = VERTEX_POINT ( 'NONE', #142 ) ;
#113 = ADVANCED_FACE ( 'NONE', ( #163, #8 ), #101, .T. ) ;
#114 = LOCAL_TIME ( 10, 12, 58.00000000000000000, #190 ) ;
#115 = DIRECTION ( 'NONE',  ( 4.275831445896958607E-31, 1.000000000000000000, 1.224646799147353207E-16 ) ) ;
#116 = CIRCLE ( 'NONE', #6, 0.6649999999999994804 ) ;
#117 = ORIENTED_EDGE ( 'NONE', *, *, #209, .T. ) ;
#118 = CARTESIAN_POINT ( 'NONE',  ( 3.910459099504309358E-14, -1.371604415045035513E-15, 11.19999999999999929 ) ) ;
#119 = DIRECTION ( 'NONE',  ( 0.0000000000000000000, 1.000000000000000000, 0.0000000000000000000 ) ) ;
#120 = EDGE_LOOP ( 'NONE', ( #108 ) ) ;
#121 = PRODUCT_RELATED_PRODUCT_CATEGORY ( 'detail', '', ( #211 ) ) ;
#122 = APPROVAL_PERSON_ORGANIZATION ( #15, #132, #92 ) ;
#123 = CARTESIAN_POINT ( 'NONE',  ( 0.0000000000000000000, 0.0000000000000000000, 0.0000000000000000000 ) ) ;
#124 = APPROVAL ( #182, 'UNSPECIFIED' ) ;
#125 = CALENDAR_DATE ( 2021, 8, 10 ) ;
#126 = AXIS2_PLACEMENT_3D ( 'NONE', #199, #185, #203 ) ;
#127 = FACE_OUTER_BOUND ( 'NONE', #196, .T. ) ;
#128 = DIRECTION ( 'NONE',  ( 0.0000000000000000000, 1.000000000000000000, 0.0000000000000000000 ) ) ;
#129 = AXIS2_PLACEMENT_3D ( 'NONE', #11, #164, #149 ) ;
#130 = DIRECTION ( 'NONE',  ( 3.491481338843133355E-15, -1.224646799147353207E-16, 1.000000000000000000 ) ) ;
#131 = FACE_OUTER_BOUND ( 'NONE', #134, .T. ) ;
#132 = APPROVAL ( #58, 'UNSPECIFIED' ) ;
#133 = LOCAL_TIME ( 10, 12, 58.00000000000000000, #54 ) ;
#134 = EDGE_LOOP ( 'NONE', ( #219 ) ) ;
#135 = AXIS2_PLACEMENT_3D ( 'NONE', #45, #20, #197 ) ;
#136 = EDGE_CURVE ( 'NONE', #176, #176, #57, .T. ) ;
#137 = COORDINATED_UNIVERSAL_TIME_OFFSET ( 1, 0, .AHEAD. ) ;
#138 = EDGE_CURVE ( 'NONE', #52, #52, #36, .T. ) ;
#139 = DIRECTION ( 'NONE',  ( -3.491481338843133355E-15, 1.224646799147353207E-16, -1.000000000000000000 ) ) ;
#140 = DIRECTION ( 'NONE',  ( 0.0000000000000000000, 0.0000000000000000000, 1.000000000000000000 ) ) ;
#141 = CC_DESIGN_DATE_AND_TIME_ASSIGNMENT ( #111, #17, ( #170 ) ) ;
#142 = CARTESIAN_POINT ( 'NONE',  ( 3.910459099504309358E-14, 0.6649999999999980371, 11.19999999999999929 ) ) ;
#143 = VERTEX_POINT ( 'NONE', #174 ) ;
#144 = SECURITY_CLASSIFICATION_LEVEL ( 'unclassified' ) ;
#145 = AXIS2_PLACEMENT_3D ( 'NONE', #7, #183, #98 ) ;
#146 = CC_DESIGN_PERSON_AND_ORGANIZATION_ASSIGNMENT ( #93, #1, ( #211 ) ) ;
#147 = DIRECTION ( 'NONE',  ( 0.0000000000000000000, 1.000000000000000000, 0.0000000000000000000 ) ) ;
#148 = DATE_AND_TIME ( #103, #34 ) ;
#149 = DIRECTION ( 'NONE',  ( -2.896135254717654205E-31, -1.000000000000000000, -1.630379206745122999E-16 ) ) ;
#150 = EDGE_LOOP ( 'NONE', ( #167 ) ) ;
#151 = DIRECTION ( 'NONE',  ( -4.275831445896958607E-31, -1.000000000000000000, -1.224646799147353207E-16 ) ) ;
#152 = PERSON_AND_ORGANIZATION ( #153, #175 ) ;
#153 = PERSON ( 'UNSPECIFIED', 'UNSPECIFIED', 'UNSPECIFIED', ('UNSPECIFIED'), ('UNSPECIFIED'), ('UNSPECIFIED') ) ;
#154 = DATE_AND_TIME ( #166, #19 ) ;
#155 = EDGE_LOOP ( 'NONE', ( #106 ) ) ;
#156 = CARTESIAN_POINT ( 'NONE',  ( 1.340512114416351968E-15, 0.6649999999999985922, 0.3839379290111048504 ) ) ;
#157 = PERSON_AND_ORGANIZATION ( #153, #175 ) ;
#158 = MECHANICAL_CONTEXT ( 'NONE', #69, 'mechanical' ) ;
#159 = CC_DESIGN_PERSON_AND_ORGANIZATION_ASSIGNMENT ( #193, #25, ( #67 ) ) ;
#160 = PLANE ( 'NONE',  #223 ) ;
#161 = ADVANCED_FACE ( 'NONE', ( #186 ), #87, .T. ) ;
#162 = CARTESIAN_POINT ( 'NONE',  ( 1.047444401652940007E-13, -3.673940397442059178E-15, 30.00000000000000000 ) ) ;
#163 = FACE_OUTER_BOUND ( 'NONE', #120, .T. ) ;
#164 = DIRECTION ( 'NONE',  ( 3.491481338843133355E-15, -1.224646799147353207E-16, 1.000000000000000000 ) ) ;
#165 = CARTESIAN_POINT ( 'NONE',  ( 0.0000000000000000000, 0.0000000000000000000, 0.0000000000000000000 ) ) ;
#166 = CALENDAR_DATE ( 2021, 8, 10 ) ;
#167 = ORIENTED_EDGE ( 'NONE', *, *, #50, .T. ) ;
#168 = EDGE_LOOP ( 'NONE', ( #90 ) ) ;
#169 = APPLICATION_PROTOCOL_DEFINITION ( 'international standard', 'config_control_design', 1994, #69 ) ;
#170 = PRODUCT_DEFINITION ( 'UNKNOWN', '', #31, #80 ) ;
#171 = APPLICATION_PROTOCOL_DEFINITION ( 'international standard', 'config_control_design', 1994, #75 ) ;
#172 = AXIS2_PLACEMENT_3D ( 'NONE', #79, #130, #151 ) ;
#173 = CARTESIAN_POINT ( 'NONE',  ( 1.040461438975253740E-13, 0.7499999999999963363, 29.80000000000000071 ) ) ;
#174 = CARTESIAN_POINT ( 'NONE',  ( 3.910459099504309358E-14, 0.6649999999999980371, 11.19999999999999929 ) ) ;
#175 = ORGANIZATION ( 'UNSPECIFIED', 'UNSPECIFIED', '' ) ;
#176 = VERTEX_POINT ( 'NONE', #173 ) ;
#177 = CLOSED_SHELL ( 'NONE', ( #195, #60, #55, #113, #215 ) ) ;
#178 = APPROVAL_DATE_TIME ( #148, #124 ) ;
#179 = CC_DESIGN_SECURITY_CLASSIFICATION ( #67, ( #31 ) ) ;
#180 = PRODUCT_DEFINITION_SHAPE ( 'NONE', 'NONE',  #170 ) ;
#181 = FACE_BOUND ( 'NONE', #168, .T. ) ;
#182 = APPROVAL_STATUS ( 'not_yet_approved' ) ;
#183 = DIRECTION ( 'NONE',  ( -3.491481338843133355E-15, 1.224646799147353207E-16, -1.000000000000000000 ) ) ;
#184 = PERSON_AND_ORGANIZATION ( #153, #175 ) ;
#185 = DIRECTION ( 'NONE',  ( -3.491481338843133355E-15, 1.224646799147353207E-16, -1.000000000000000000 ) ) ;
#186 = FACE_OUTER_BOUND ( 'NONE', #47, .T. ) ;
#187 = ORIENTED_EDGE ( 'NONE', *, *, #138, .F. ) ;
#188 = ORIENTED_EDGE ( 'NONE', *, *, #138, .T. ) ;
#189 =( NAMED_UNIT ( * ) SI_UNIT ( $, .STERADIAN. ) SOLID_ANGLE_UNIT ( ) );
#190 = COORDINATED_UNIVERSAL_TIME_OFFSET ( 1, 0, .AHEAD. ) ;
#191 = DIRECTION ( 'NONE',  ( 4.275831445896958607E-31, 1.000000000000000000, 1.224646799147353207E-16 ) ) ;
#192 = PERSON_AND_ORGANIZATION_ROLE ( 'creator' ) ;
#193 = PERSON_AND_ORGANIZATION ( #153, #175 ) ;
#194 = CC_DESIGN_PERSON_AND_ORGANIZATION_ASSIGNMENT ( #210, #192, ( #170 ) ) ;
#195 = ADVANCED_FACE ( 'NONE', ( #77 ), #10, .F. ) ;
#196 = EDGE_LOOP ( 'NONE', ( #187 ) ) ;
#197 = DIRECTION ( 'NONE',  ( 2.896135254717654205E-31, 1.000000000000000000, 1.630379206745122999E-16 ) ) ;
#198 = AXIS2_PLACEMENT_3D ( 'NONE', #118, #82, #68 ) ;
#199 = CARTESIAN_POINT ( 'NONE',  ( 0.0000000000000000000, 0.0000000000000000000, 0.0000000000000000000 ) ) ;
#200 = ADVANCED_FACE ( 'NONE', ( #83 ), #65, .T. ) ;
#201 = CYLINDRICAL_SURFACE ( 'NONE', #126, 0.7499999999999988898 ) ;
#202 = CC_DESIGN_APPROVAL ( #124, ( #31 ) ) ;
#203 = DIRECTION ( 'NONE',  ( 4.275831445896959482E-31, 1.000000000000000000, 1.224646799147353207E-16 ) ) ;
#204 = EDGE_LOOP ( 'NONE', ( #188 ) ) ;
#205 = DATE_TIME_ROLE ( 'classification_date' ) ;
#206 = CC_DESIGN_PERSON_AND_ORGANIZATION_ASSIGNMENT ( #184, #35, ( #31 ) ) ;
#207 = CARTESIAN_POINT ( 'NONE',  ( 1.047444401652940007E-13, 4.124339402320052999E-33, 30.00000000000000000 ) ) ;
#208 = DIRECTION ( 'NONE',  ( 1.000000000000000000, 0.0000000000000000000, 0.0000000000000000000 ) ) ;
#209 = EDGE_CURVE ( 'NONE', #72, #72, #74, .T. ) ;
#210 = PERSON_AND_ORGANIZATION ( #153, #175 ) ;
#211 = PRODUCT ( '957916', '957916', '', ( #158 ) ) ;
#212 = EDGE_LOOP ( 'NONE', ( #85 ) ) ;
#213 = CARTESIAN_POINT ( 'NONE',  ( 1.040461438975253740E-13, -3.649447461459112464E-15, 29.80000000000000071 ) ) ;
#214 = FACE_OUTER_BOUND ( 'NONE', #13, .T. ) ;
#215 = ADVANCED_FACE ( 'NONE', ( #222 ), #160, .F. ) ;
#216 = CARTESIAN_POINT ( 'NONE',  ( 3.910459099504309358E-14, -1.371604415045035513E-15, 11.19999999999999929 ) ) ;
#217 = CARTESIAN_POINT ( 'NONE',  ( 1.047444401652940007E-13, -3.673940397442059178E-15, 30.00000000000000000 ) ) ;
#218 = APPROVAL_PERSON_ORGANIZATION ( #152, #4, #70 ) ;
#219 = ORIENTED_EDGE ( 'NONE', *, *, #14, .T. ) ;
#220 = APPROVAL_DATE_TIME ( #154, #4 ) ;
#221 = CARTESIAN_POINT ( 'NONE',  ( 1.047444401652940007E-13, 0.5499999999999963807, 30.00000000000000000 ) ) ;
#222 = FACE_OUTER_BOUND ( 'NONE', #155, .T. ) ;
#223 = AXIS2_PLACEMENT_3D ( 'NONE', #207, #56, #191 ) ;
ENDSEC;
END-ISO-10303-21;
