ISO-10303-21;
HEADER;
FILE_DESCRIPTION (( 'STEP AP203' ),
    '1' );
FILE_NAME ('957914.step',
    '2021-10-08T08:12:56',
    ( '' ),
    ( '' ),
    'SwSTEP 2.0',
    'SolidWorks 2019',
    '' );
FILE_SCHEMA (( 'CONFIG_CONTROL_DESIGN' ));
ENDSEC;

DATA;
#1 = EDGE_LOOP ( 'NONE', ( #19 ) ) ;
#2 = CIRCLE ( 'NONE', #25, 0.7499999999999977796 ) ;
#3 = CARTESIAN_POINT ( 'NONE',  ( 0.0000000000000000000, 0.0000000000000000000, 0.0000000000000000000 ) ) ;
#4 = DIRECTION ( 'NONE',  ( 3.491481338843133355E-15, -1.224646799147353207E-16, 1.000000000000000000 ) ) ;
#5 = AXIS2_PLACEMENT_3D ( 'NONE', #74, #137, #204 ) ;
#6 = DIRECTION ( 'NONE',  ( 0.0000000000000000000, 1.000000000000000000, 0.0000000000000000000 ) ) ;
#7 = DIRECTION ( 'NONE',  ( 3.491481338843133355E-15, -1.224646799147353207E-16, 1.000000000000000000 ) ) ;
#8 = APPLICATION_CONTEXT ( 'configuration controlled 3d designs of mechanical parts and assemblies' ) ;
#9 = EDGE_CURVE ( 'NONE', #114, #114, #216, .T. ) ;
#10 = PERSON_AND_ORGANIZATION ( #207, #117 ) ;
#11 = AXIS2_PLACEMENT_3D ( 'NONE', #210, #24, #78 ) ;
#12 = DIRECTION ( 'NONE',  ( 1.000000000000000000, 0.0000000000000000000, 0.0000000000000000000 ) ) ;
#13 = COORDINATED_UNIVERSAL_TIME_OFFSET ( 1, 0, .AHEAD. ) ;
#14 = APPROVAL ( #132, 'UNSPECIFIED' ) ;
#15 = EDGE_LOOP ( 'NONE', ( #92 ) ) ;
#16 = EDGE_LOOP ( 'NONE', ( #38 ) ) ;
#17 = AXIS2_PLACEMENT_3D ( 'NONE', #161, #143, #6 ) ;
#18 = CC_DESIGN_APPROVAL ( #191, ( #56 ) ) ;
#19 = ORIENTED_EDGE ( 'NONE', *, *, #186, .F. ) ;
#20 = PRODUCT ( '957914', '957914', '', ( #130 ) ) ;
#21 = FACE_OUTER_BOUND ( 'NONE', #15, .T. ) ;
#22 =( GEOMETRIC_REPRESENTATION_CONTEXT ( 3 ) GLOBAL_UNCERTAINTY_ASSIGNED_CONTEXT ( ( #82 ) ) GLOBAL_UNIT_ASSIGNED_CONTEXT ( ( #67, #199, #219 ) ) REPRESENTATION_CONTEXT ( 'NONE', 'WORKASPACE' ) );
#23 = DIRECTION ( 'NONE',  ( -4.275831445896958607E-31, -1.000000000000000000, -1.224646799147353207E-16 ) ) ;
#24 = DIRECTION ( 'NONE',  ( -3.491481338843133355E-15, 1.224646799147353207E-16, -1.000000000000000000 ) ) ;
#25 = AXIS2_PLACEMENT_3D ( 'NONE', #125, #58, #162 ) ;
#26 = CYLINDRICAL_SURFACE ( 'NONE', #171, 0.6600000000000001421 ) ;
#27 = DESIGN_CONTEXT ( 'detailed design', #8, 'design' ) ;
#28 = LOCAL_TIME ( 10, 12, 56.00000000000000000, #183 ) ;
#29 = VERTEX_POINT ( 'NONE', #100 ) ;
#30 = CALENDAR_DATE ( 2021, 8, 10 ) ;
#31 = AXIS2_PLACEMENT_3D ( 'NONE', #98, #193, #179 ) ;
#32 = ADVANCED_FACE ( 'NONE', ( #109 ), #173, .F. ) ;
#33 = APPROVAL_ROLE ( '' ) ;
#34 = SECURITY_CLASSIFICATION ( '', '', #105 ) ;
#35 = DATE_TIME_ROLE ( 'creation_date' ) ;
#36 = PERSON_AND_ORGANIZATION_ROLE ( 'creator' ) ;
#37 = DATE_AND_TIME ( #30, #28 ) ;
#38 = ORIENTED_EDGE ( 'NONE', *, *, #95, .T. ) ;
#39 = CIRCLE ( 'NONE', #17, 0.6600000000000013634 ) ;
#40 = CC_DESIGN_PERSON_AND_ORGANIZATION_ASSIGNMENT ( #10, #51, ( #145 ) ) ;
#41 = PLANE ( 'NONE',  #154 ) ;
#42 = DIRECTION ( 'NONE',  ( 0.0000000000000000000, 1.000000000000000000, 0.0000000000000000000 ) ) ;
#43 = CARTESIAN_POINT ( 'NONE',  ( 1.040461438975253740E-13, -3.649447461459112464E-15, 29.80000000000000071 ) ) ;
#44 = DIRECTION ( 'NONE',  ( 2.918075673313999144E-31, 1.000000000000000000, 8.213652821859897353E-17 ) ) ;
#45 = APPROVAL_DATE_TIME ( #37, #191 ) ;
#46 = ADVANCED_FACE ( 'NONE', ( #209, #94 ), #63, .T. ) ;
#47 = PERSON_AND_ORGANIZATION ( #207, #117 ) ;
#48 = LOCAL_TIME ( 10, 12, 56.00000000000000000, #13 ) ;
#49 = APPROVAL_STATUS ( 'not_yet_approved' ) ;
#50 = MANIFOLD_SOLID_BREP ( 'Corps-Déplacer/Copier1[1]', #188 ) ;
#51 = PERSON_AND_ORGANIZATION_ROLE ( 'design_supplier' ) ;
#52 = MANIFOLD_SOLID_BREP ( 'Corps-Déplacer/Copier1[2]', #176 ) ;
#53 = EDGE_LOOP ( 'NONE', ( #172 ) ) ;
#54 = CC_DESIGN_SECURITY_CLASSIFICATION ( #34, ( #145 ) ) ;
#55 = ORIENTED_EDGE ( 'NONE', *, *, #220, .F. ) ;
#56 = PRODUCT_DEFINITION ( 'UNKNOWN', '', #145, #27 ) ;
#57 = VERTEX_POINT ( 'NONE', #147 ) ;
#58 = DIRECTION ( 'NONE',  ( -3.491481338843133355E-15, 1.224646799147353207E-16, -1.000000000000000000 ) ) ;
#59 = CIRCLE ( 'NONE', #75, 0.6600000000000013634 ) ;
#60 = FACE_OUTER_BOUND ( 'NONE', #107, .T. ) ;
#61 = CARTESIAN_POINT ( 'NONE',  ( 1.330433075962094015E-15, -4.666531050389635612E-17, 0.3810511776651567262 ) ) ;
#62 = CARTESIAN_POINT ( 'NONE',  ( 1.330433075962094015E-15, -4.666531050389635612E-17, 0.3810511776651567262 ) ) ;
#63 = CONICAL_SURFACE ( 'NONE', #31, 0.7499999999999977796, 0.5235987755982891567 ) ;
#64 = LOCAL_TIME ( 10, 12, 56.00000000000000000, #81 ) ;
#65 = CC_DESIGN_PERSON_AND_ORGANIZATION_ASSIGNMENT ( #134, #71, ( #20 ) ) ;
#66 = SHAPE_DEFINITION_REPRESENTATION ( #89, #120 ) ;
#67 =( LENGTH_UNIT ( ) NAMED_UNIT ( * ) SI_UNIT ( .MILLI., .METRE. ) );
#68 = PERSON_AND_ORGANIZATION ( #207, #117 ) ;
#69 = CARTESIAN_POINT ( 'NONE',  ( 0.0000000000000000000, 0.0000000000000000000, 0.0000000000000000000 ) ) ;
#70 = AXIS2_PLACEMENT_3D ( 'NONE', #69, #83, #12 ) ;
#71 = PERSON_AND_ORGANIZATION_ROLE ( 'design_owner' ) ;
#72 = ADVANCED_FACE ( 'NONE', ( #128, #194 ), #124, .T. ) ;
#73 = LOCAL_TIME ( 10, 12, 56.00000000000000000, #165 ) ;
#74 = CARTESIAN_POINT ( 'NONE',  ( 1.047444401652940007E-13, -3.673940397442059178E-15, 30.00000000000000000 ) ) ;
#75 = AXIS2_PLACEMENT_3D ( 'NONE', #80, #96, #139 ) ;
#76 = APPROVAL ( #85, 'UNSPECIFIED' ) ;
#77 = CARTESIAN_POINT ( 'NONE',  ( 0.0000000000000000000, 0.0000000000000000000, 0.0000000000000000000 ) ) ;
#78 = DIRECTION ( 'NONE',  ( 0.0000000000000000000, 1.000000000000000000, 0.0000000000000000000 ) ) ;
#79 = AXIS2_PLACEMENT_3D ( 'NONE', #62, #198, #44 ) ;
#80 = CARTESIAN_POINT ( 'NONE',  ( 3.910459099504309989E-14, -1.371604415045035710E-15, 11.20000000000000107 ) ) ;
#81 = COORDINATED_UNIVERSAL_TIME_OFFSET ( 1, 0, .AHEAD. ) ;
#82 = UNCERTAINTY_MEASURE_WITH_UNIT (LENGTH_MEASURE( 1.000000000000000082E-05 ), #67, 'distance_accuracy_value', 'NONE');
#83 = DIRECTION ( 'NONE',  ( 0.0000000000000000000, 0.0000000000000000000, 1.000000000000000000 ) ) ;
#84 = AXIS2_PLACEMENT_3D ( 'NONE', #112, #141, #144 ) ;
#85 = APPROVAL_STATUS ( 'not_yet_approved' ) ;
#86 = CALENDAR_DATE ( 2021, 8, 10 ) ;
#87 = ADVANCED_FACE ( 'NONE', ( #110 ), #133, .T. ) ;
#88 = EDGE_LOOP ( 'NONE', ( #55 ) ) ;
#89 = PRODUCT_DEFINITION_SHAPE ( 'NONE', 'NONE',  #56 ) ;
#90 = CIRCLE ( 'NONE', #212, 0.7500000000000000000 ) ;
#91 = PRODUCT_RELATED_PRODUCT_CATEGORY ( 'detail', '', ( #20 ) ) ;
#92 = ORIENTED_EDGE ( 'NONE', *, *, #159, .F. ) ;
#93 = DIRECTION ( 'NONE',  ( 4.275831445896958607E-31, 1.000000000000000000, 1.224646799147353207E-16 ) ) ;
#94 = FACE_OUTER_BOUND ( 'NONE', #170, .T. ) ;
#95 = EDGE_CURVE ( 'NONE', #29, #29, #59, .T. ) ;
#96 = DIRECTION ( 'NONE',  ( -3.491481338843133355E-15, 1.224646799147353207E-16, -1.000000000000000000 ) ) ;
#97 = AXIS2_PLACEMENT_3D ( 'NONE', #77, #111, #127 ) ;
#98 = CARTESIAN_POINT ( 'NONE',  ( 3.964885907157303174E-14, -1.390694769342083745E-15, 11.35588457268119811 ) ) ;
#99 = APPROVAL_PERSON_ORGANIZATION ( #168, #14, #169 ) ;
#100 = CARTESIAN_POINT ( 'NONE',  ( 3.910459099504309989E-14, 0.6600000000000000311, 11.20000000000000107 ) ) ;
#101 = CC_DESIGN_DATE_AND_TIME_ASSIGNMENT ( #182, #150, ( #34 ) ) ;
#102 = CARTESIAN_POINT ( 'NONE',  ( 1.040461438975253740E-13, 0.7499999999999963363, 29.80000000000000071 ) ) ;
#103 = DATE_AND_TIME ( #218, #73 ) ;
#104 = APPROVAL_DATE_TIME ( #155, #14 ) ;
#105 = SECURITY_CLASSIFICATION_LEVEL ( 'unclassified' ) ;
#106 = PERSON_AND_ORGANIZATION_ROLE ( 'classification_officer' ) ;
#107 = EDGE_LOOP ( 'NONE', ( #192 ) ) ;
#108 = EDGE_LOOP ( 'NONE', ( #174 ) ) ;
#109 = FACE_OUTER_BOUND ( 'NONE', #16, .T. ) ;
#110 = FACE_OUTER_BOUND ( 'NONE', #187, .T. ) ;
#111 = DIRECTION ( 'NONE',  ( -3.491481338843133355E-15, 1.224646799147353207E-16, -1.000000000000000000 ) ) ;
#112 = CARTESIAN_POINT ( 'NONE',  ( 3.910459099504309989E-14, -2.074931479432926012E-31, 11.20000000000000107 ) ) ;
#113 = FACE_OUTER_BOUND ( 'NONE', #88, .T. ) ;
#114 = VERTEX_POINT ( 'NONE', #181 ) ;
#115 = DATE_AND_TIME ( #214, #64 ) ;
#116 = ADVANCED_FACE ( 'NONE', ( #206 ), #178, .F. ) ;
#117 = ORGANIZATION ( 'UNSPECIFIED', 'UNSPECIFIED', '' ) ;
#118 = APPLICATION_PROTOCOL_DEFINITION ( 'international standard', 'config_control_design', 1994, #8 ) ;
#119 = CC_DESIGN_DATE_AND_TIME_ASSIGNMENT ( #103, #35, ( #56 ) ) ;
#120 = ADVANCED_BREP_SHAPE_REPRESENTATION ( '957914', ( #50, #52, #70 ), #22 ) ;
#121 = ORIENTED_EDGE ( 'NONE', *, *, #131, .F. ) ;
#122 = CC_DESIGN_APPROVAL ( #14, ( #34 ) ) ;
#123 = DIRECTION ( 'NONE',  ( -3.491481338843133355E-15, 1.224646799147353207E-16, -1.000000000000000000 ) ) ;
#124 = CONICAL_SURFACE ( 'NONE', #11, 0.5500000000000000444, 0.7853981633974512766 ) ;
#125 = CARTESIAN_POINT ( 'NONE',  ( 3.964885907157303174E-14, -1.390694769342083745E-15, 11.35588457268119811 ) ) ;
#126 = CARTESIAN_POINT ( 'NONE',  ( 1.047444401652940007E-13, 4.124339402320052999E-33, 30.00000000000000000 ) ) ;
#127 = DIRECTION ( 'NONE',  ( 4.275831445896959482E-31, 1.000000000000000000, 1.224646799147353207E-16 ) ) ;
#128 = FACE_OUTER_BOUND ( 'NONE', #1, .T. ) ;
#129 = CARTESIAN_POINT ( 'NONE',  ( 3.910459099504309989E-14, 0.6600000000000000311, 11.20000000000000107 ) ) ;
#130 = MECHANICAL_CONTEXT ( 'NONE', #217, 'mechanical' ) ;
#131 = EDGE_CURVE ( 'NONE', #57, #57, #2, .T. ) ;
#132 = APPROVAL_STATUS ( 'not_yet_approved' ) ;
#133 = CONICAL_SURFACE ( 'NONE', #222, 0.6599999999999988098, 1.047197551196592746 ) ;
#134 = PERSON_AND_ORGANIZATION ( #207, #117 ) ;
#135 = CC_DESIGN_PERSON_AND_ORGANIZATION_ASSIGNMENT ( #68, #106, ( #34 ) ) ;
#136 = CC_DESIGN_APPROVAL ( #76, ( #145 ) ) ;
#137 = DIRECTION ( 'NONE',  ( -3.491481338843133355E-15, 1.224646799147353207E-16, -1.000000000000000000 ) ) ;
#138 = ORIENTED_EDGE ( 'NONE', *, *, #9, .F. ) ;
#139 = DIRECTION ( 'NONE',  ( 0.0000000000000000000, 1.000000000000000000, 0.0000000000000000000 ) ) ;
#140 = ADVANCED_FACE ( 'NONE', ( #160, #60 ), #205, .T. ) ;
#141 = DIRECTION ( 'NONE',  ( 3.491481338843133355E-15, -1.224646799147353207E-16, 1.000000000000000000 ) ) ;
#142 = CIRCLE ( 'NONE', #79, 0.6599999999999988098 ) ;
#143 = DIRECTION ( 'NONE',  ( -3.491481338843133355E-15, 1.224646799147353207E-16, -1.000000000000000000 ) ) ;
#144 = DIRECTION ( 'NONE',  ( -4.275831445896958607E-31, -1.000000000000000000, -1.224646799147353207E-16 ) ) ;
#145 = PRODUCT_DEFINITION_FORMATION_WITH_SPECIFIED_SOURCE ( 'ANY', '', #20, .NOT_KNOWN. ) ;
#146 = DIRECTION ( 'NONE',  ( -3.491481338843133355E-15, 1.224646799147353207E-16, -1.000000000000000000 ) ) ;
#147 = CARTESIAN_POINT ( 'NONE',  ( 3.964885907157303174E-14, 0.7499999999999963363, 11.35588457268119811 ) ) ;
#148 = VERTEX_POINT ( 'NONE', #164 ) ;
#149 = ADVANCED_FACE ( 'NONE', ( #21 ), #41, .T. ) ;
#150 = DATE_TIME_ROLE ( 'classification_date' ) ;
#151 = APPROVAL_PERSON_ORGANIZATION ( #185, #191, #153 ) ;
#152 = CALENDAR_DATE ( 2021, 8, 10 ) ;
#153 = APPROVAL_ROLE ( '' ) ;
#154 = AXIS2_PLACEMENT_3D ( 'NONE', #197, #4, #23 ) ;
#155 = DATE_AND_TIME ( #86, #48 ) ;
#156 = ORIENTED_EDGE ( 'NONE', *, *, #131, .T. ) ;
#157 = EDGE_LOOP ( 'NONE', ( #223 ) ) ;
#158 = EDGE_LOOP ( 'NONE', ( #138 ) ) ;
#159 = EDGE_CURVE ( 'NONE', #200, #200, #39, .T. ) ;
#160 = FACE_OUTER_BOUND ( 'NONE', #189, .T. ) ;
#161 = CARTESIAN_POINT ( 'NONE',  ( 3.910459099504309989E-14, -1.371604415045035710E-15, 11.20000000000000107 ) ) ;
#162 = DIRECTION ( 'NONE',  ( 0.0000000000000000000, 1.000000000000000000, 0.0000000000000000000 ) ) ;
#163 = LOCAL_TIME ( 10, 12, 56.00000000000000000, #166 ) ;
#164 = CARTESIAN_POINT ( 'NONE',  ( 1.330433075962094212E-15, 0.6599999999999988098, 0.3810511776651567817 ) ) ;
#165 = COORDINATED_UNIVERSAL_TIME_OFFSET ( 1, 0, .AHEAD. ) ;
#166 = COORDINATED_UNIVERSAL_TIME_OFFSET ( 1, 0, .AHEAD. ) ;
#167 = PERSON_AND_ORGANIZATION_ROLE ( 'creator' ) ;
#168 = PERSON_AND_ORGANIZATION ( #207, #117 ) ;
#169 = APPROVAL_ROLE ( '' ) ;
#170 = EDGE_LOOP ( 'NONE', ( #156 ) ) ;
#171 = AXIS2_PLACEMENT_3D ( 'NONE', #3, #146, #211 ) ;
#172 = ORIENTED_EDGE ( 'NONE', *, *, #95, .F. ) ;
#173 = PLANE ( 'NONE',  #84 ) ;
#174 = ORIENTED_EDGE ( 'NONE', *, *, #9, .T. ) ;
#175 = CC_DESIGN_PERSON_AND_ORGANIZATION_ASSIGNMENT ( #184, #36, ( #145 ) ) ;
#176 = CLOSED_SHELL ( 'NONE', ( #87, #195, #149 ) ) ;
#177 = DIRECTION ( 'NONE',  ( -2.918075673313999144E-31, -1.000000000000000000, -8.213652821859897353E-17 ) ) ;
#178 = PLANE ( 'NONE',  #208 ) ;
#179 = DIRECTION ( 'NONE',  ( 0.0000000000000000000, -1.000000000000000000, 0.0000000000000000000 ) ) ;
#180 = FACE_OUTER_BOUND ( 'NONE', #157, .T. ) ;
#181 = CARTESIAN_POINT ( 'NONE',  ( 1.047444401652940007E-13, 0.5499999999999963807, 30.00000000000000000 ) ) ;
#182 = DATE_AND_TIME ( #152, #163 ) ;
#183 = COORDINATED_UNIVERSAL_TIME_OFFSET ( 1, 0, .AHEAD. ) ;
#184 = PERSON_AND_ORGANIZATION ( #207, #117 ) ;
#185 = PERSON_AND_ORGANIZATION ( #207, #117 ) ;
#186 = EDGE_CURVE ( 'NONE', #215, #215, #90, .T. ) ;
#187 = EDGE_LOOP ( 'NONE', ( #221 ) ) ;
#188 = CLOSED_SHELL ( 'NONE', ( #32, #46, #140, #72, #116 ) ) ;
#189 = EDGE_LOOP ( 'NONE', ( #121 ) ) ;
#190 = APPROVAL_PERSON_ORGANIZATION ( #47, #76, #33 ) ;
#191 = APPROVAL ( #49, 'UNSPECIFIED' ) ;
#192 = ORIENTED_EDGE ( 'NONE', *, *, #186, .T. ) ;
#193 = DIRECTION ( 'NONE',  ( 3.491481338843133355E-15, -1.224646799147353207E-16, 1.000000000000000000 ) ) ;
#194 = FACE_BOUND ( 'NONE', #108, .T. ) ;
#195 = ADVANCED_FACE ( 'NONE', ( #113, #180 ), #26, .T. ) ;
#196 = DIRECTION ( 'NONE',  ( -3.491481338843133355E-15, 1.224646799147353207E-16, -1.000000000000000000 ) ) ;
#197 = CARTESIAN_POINT ( 'NONE',  ( 3.910459099504309989E-14, -2.074931479432926012E-31, 11.20000000000000107 ) ) ;
#198 = DIRECTION ( 'NONE',  ( -3.491481338843133355E-15, 1.224646799147353207E-16, -1.000000000000000000 ) ) ;
#199 =( NAMED_UNIT ( * ) PLANE_ANGLE_UNIT ( ) SI_UNIT ( $, .RADIAN. ) );
#200 = VERTEX_POINT ( 'NONE', #129 ) ;
#201 = PERSON_AND_ORGANIZATION ( #207, #117 ) ;
#202 = APPLICATION_PROTOCOL_DEFINITION ( 'international standard', 'config_control_design', 1994, #217 ) ;
#203 = APPROVAL_DATE_TIME ( #115, #76 ) ;
#204 = DIRECTION ( 'NONE',  ( 0.0000000000000000000, 1.000000000000000000, 0.0000000000000000000 ) ) ;
#205 = CYLINDRICAL_SURFACE ( 'NONE', #97, 0.7499999999999988898 ) ;
#206 = FACE_OUTER_BOUND ( 'NONE', #158, .T. ) ;
#207 = PERSON ( 'UNSPECIFIED', 'UNSPECIFIED', 'UNSPECIFIED', ('UNSPECIFIED'), ('UNSPECIFIED'), ('UNSPECIFIED') ) ;
#208 = AXIS2_PLACEMENT_3D ( 'NONE', #126, #123, #93 ) ;
#209 = FACE_BOUND ( 'NONE', #53, .T. ) ;
#210 = CARTESIAN_POINT ( 'NONE',  ( 1.047444401652940007E-13, -3.673940397442059178E-15, 30.00000000000000000 ) ) ;
#211 = DIRECTION ( 'NONE',  ( 4.275831445896958607E-31, 1.000000000000000000, 1.224646799147353207E-16 ) ) ;
#212 = AXIS2_PLACEMENT_3D ( 'NONE', #43, #196, #42 ) ;
#213 = CC_DESIGN_PERSON_AND_ORGANIZATION_ASSIGNMENT ( #201, #167, ( #56 ) ) ;
#214 = CALENDAR_DATE ( 2021, 8, 10 ) ;
#215 = VERTEX_POINT ( 'NONE', #102 ) ;
#216 = CIRCLE ( 'NONE', #5, 0.5500000000000000444 ) ;
#217 = APPLICATION_CONTEXT ( 'configuration controlled 3d designs of mechanical parts and assemblies' ) ;
#218 = CALENDAR_DATE ( 2021, 8, 10 ) ;
#219 =( NAMED_UNIT ( * ) SI_UNIT ( $, .STERADIAN. ) SOLID_ANGLE_UNIT ( ) );
#220 = EDGE_CURVE ( 'NONE', #148, #148, #142, .T. ) ;
#221 = ORIENTED_EDGE ( 'NONE', *, *, #220, .T. ) ;
#222 = AXIS2_PLACEMENT_3D ( 'NONE', #61, #7, #177 ) ;
#223 = ORIENTED_EDGE ( 'NONE', *, *, #159, .T. ) ;
ENDSEC;
END-ISO-10303-21;
