ISO-10303-21;
HEADER;
FILE_DESCRIPTION (( 'STEP AP203' ),
    '1' );
FILE_NAME ('957912.step',
    '2021-10-08T08:12:55',
    ( '' ),
    ( '' ),
    'SwSTEP 2.0',
    'SolidWorks 2019',
    '' );
FILE_SCHEMA (( 'CONFIG_CONTROL_DESIGN' ));
ENDSEC;

DATA;
#1 = APPROVAL ( #67, 'UNSPECIFIED' ) ;
#2 = CARTESIAN_POINT ( 'NONE',  ( 1.040461438975253740E-13, 0.7499999999999963363, 29.80000000000000071 ) ) ;
#3 = CYLINDRICAL_SURFACE ( 'NONE', #41, 0.6349999999999998979 ) ;
#4 = EDGE_LOOP ( 'NONE', ( #79 ) ) ;
#5 = CARTESIAN_POINT ( 'NONE',  ( 3.491481338843133986E-14, -1.224646799147353454E-15, 10.00000000000000178 ) ) ;
#6 = LOCAL_TIME ( 10, 12, 55.00000000000000000, #54 ) ;
#7 = FACE_BOUND ( 'NONE', #213, .T. ) ;
#8 = EDGE_LOOP ( 'NONE', ( #115 ) ) ;
#9 = DIRECTION ( 'NONE',  ( -4.275831445896958607E-31, -1.000000000000000000, -1.224646799147353207E-16 ) ) ;
#10 = APPROVAL_PERSON_ORGANIZATION ( #12, #57, #179 ) ;
#11 = CARTESIAN_POINT ( 'NONE',  ( 1.280037883690802671E-15, 0.6349999999999988987, 0.3666174209354159941 ) ) ;
#12 = PERSON_AND_ORGANIZATION ( #223, #104 ) ;
#13 =( NAMED_UNIT ( * ) SI_UNIT ( $, .STERADIAN. ) SOLID_ANGLE_UNIT ( ) );
#14 = EDGE_CURVE ( 'NONE', #192, #192, #139, .T. ) ;
#15 = PRODUCT_DEFINITION_FORMATION_WITH_SPECIFIED_SOURCE ( 'ANY', '', #207, .NOT_KNOWN. ) ;
#16 = FACE_OUTER_BOUND ( 'NONE', #150, .T. ) ;
#17 = AXIS2_PLACEMENT_3D ( 'NONE', #175, #212, #34 ) ;
#18 = DIRECTION ( 'NONE',  ( 3.491481338843133355E-15, -1.224646799147353207E-16, 1.000000000000000000 ) ) ;
#19 = FACE_OUTER_BOUND ( 'NONE', #178, .T. ) ;
#20 = EDGE_LOOP ( 'NONE', ( #118 ) ) ;
#21 = DIRECTION ( 'NONE',  ( 0.0000000000000000000, 1.000000000000000000, 0.0000000000000000000 ) ) ;
#22 = EDGE_LOOP ( 'NONE', ( #93 ) ) ;
#23 = CLOSED_SHELL ( 'NONE', ( #148, #25, #52 ) ) ;
#24 = DIRECTION ( 'NONE',  ( 4.275831445896958607E-31, 1.000000000000000000, 1.224646799147353207E-16 ) ) ;
#25 = ADVANCED_FACE ( 'NONE', ( #169, #91 ), #3, .T. ) ;
#26 = MECHANICAL_CONTEXT ( 'NONE', #111, 'mechanical' ) ;
#27 = DIRECTION ( 'NONE',  ( -3.491481338843133355E-15, 1.224646799147353207E-16, -1.000000000000000000 ) ) ;
#28 = CALENDAR_DATE ( 2021, 8, 10 ) ;
#29 = PERSON_AND_ORGANIZATION ( #223, #104 ) ;
#30 = ADVANCED_FACE ( 'NONE', ( #74, #162 ), #187, .T. ) ;
#31 = AXIS2_PLACEMENT_3D ( 'NONE', #5, #214, #161 ) ;
#32 = DATE_AND_TIME ( #51, #188 ) ;
#33 = PRODUCT_DEFINITION_SHAPE ( 'NONE', 'NONE',  #171 ) ;
#34 = DIRECTION ( 'NONE',  ( 4.275831445896959482E-31, 1.000000000000000000, 1.224646799147353207E-16 ) ) ;
#35 = AXIS2_PLACEMENT_3D ( 'NONE', #132, #134, #149 ) ;
#36 = DIRECTION ( 'NONE',  ( -3.491481338843133355E-15, 1.224646799147353207E-16, -1.000000000000000000 ) ) ;
#37 = EDGE_LOOP ( 'NONE', ( #196 ) ) ;
#38 = PLANE ( 'NONE',  #140 ) ;
#39 = ORIENTED_EDGE ( 'NONE', *, *, #72, .F. ) ;
#40 = CARTESIAN_POINT ( 'NONE',  ( 1.047444401652940007E-13, 0.5499999999999963807, 30.00000000000000000 ) ) ;
#41 = AXIS2_PLACEMENT_3D ( 'NONE', #160, #165, #24 ) ;
#42 = PRODUCT_RELATED_PRODUCT_CATEGORY ( 'detail', '', ( #207 ) ) ;
#43 = SECURITY_CLASSIFICATION ( '', '', #221 ) ;
#44 = DIRECTION ( 'NONE',  ( -3.491481338843133355E-15, 1.224646799147353207E-16, -1.000000000000000000 ) ) ;
#45 = EDGE_LOOP ( 'NONE', ( #191 ) ) ;
#46 = APPROVAL_STATUS ( 'not_yet_approved' ) ;
#47 = MANIFOLD_SOLID_BREP ( 'Corps-Déplacer/Copier1[2]', #23 ) ;
#48 = AXIS2_PLACEMENT_3D ( 'NONE', #208, #209, #110 ) ;
#49 = DATE_TIME_ROLE ( 'creation_date' ) ;
#50 = APPLICATION_PROTOCOL_DEFINITION ( 'international standard', 'config_control_design', 1994, #126 ) ;
#51 = CALENDAR_DATE ( 2021, 8, 10 ) ;
#52 = ADVANCED_FACE ( 'NONE', ( #19 ), #176, .T. ) ;
#53 = CC_DESIGN_PERSON_AND_ORGANIZATION_ASSIGNMENT ( #29, #102, ( #15 ) ) ;
#54 = COORDINATED_UNIVERSAL_TIME_OFFSET ( 1, 0, .AHEAD. ) ;
#55 = APPROVAL_ROLE ( '' ) ;
#56 = DIRECTION ( 'NONE',  ( 0.0000000000000000000, 1.000000000000000000, 0.0000000000000000000 ) ) ;
#57 = APPROVAL ( #46, 'UNSPECIFIED' ) ;
#58 = CARTESIAN_POINT ( 'NONE',  ( 3.491481338843133986E-14, -2.076806179161253047E-31, 10.00000000000000178 ) ) ;
#59 = LOCAL_TIME ( 10, 12, 55.00000000000000000, #101 ) ;
#60 = DIRECTION ( 'NONE',  ( -4.275831445896958607E-31, -1.000000000000000000, -1.224646799147353207E-16 ) ) ;
#61 = DIRECTION ( 'NONE',  ( 0.0000000000000000000, -1.000000000000000000, 0.0000000000000000000 ) ) ;
#62 = AXIS2_PLACEMENT_3D ( 'NONE', #78, #133, #56 ) ;
#63 = DIRECTION ( 'NONE',  ( 1.000000000000000000, 0.0000000000000000000, 0.0000000000000000000 ) ) ;
#64 = ORIENTED_EDGE ( 'NONE', *, *, #14, .T. ) ;
#65 = PERSON_AND_ORGANIZATION ( #223, #104 ) ;
#66 = COORDINATED_UNIVERSAL_TIME_OFFSET ( 1, 0, .AHEAD. ) ;
#67 = APPROVAL_STATUS ( 'not_yet_approved' ) ;
#68 = PERSON_AND_ORGANIZATION ( #223, #104 ) ;
#69 = ADVANCED_FACE ( 'NONE', ( #75 ), #193, .F. ) ;
#70 = CC_DESIGN_DATE_AND_TIME_ASSIGNMENT ( #32, #157, ( #43 ) ) ;
#71 = CONICAL_SURFACE ( 'NONE', #215, 0.7499999999999976685, 0.5235987755982952629 ) ;
#72 = EDGE_CURVE ( 'NONE', #89, #89, #127, .T. ) ;
#73 = VERTEX_POINT ( 'NONE', #177 ) ;
#74 = FACE_OUTER_BOUND ( 'NONE', #45, .T. ) ;
#75 = FACE_OUTER_BOUND ( 'NONE', #4, .T. ) ;
#76 = ORIENTED_EDGE ( 'NONE', *, *, #88, .F. ) ;
#77 =( GEOMETRIC_REPRESENTATION_CONTEXT ( 3 ) GLOBAL_UNCERTAINTY_ASSIGNED_CONTEXT ( ( #122 ) ) GLOBAL_UNIT_ASSIGNED_CONTEXT ( ( #195, #95, #13 ) ) REPRESENTATION_CONTEXT ( 'NONE', 'WORKASPACE' ) );
#78 = CARTESIAN_POINT ( 'NONE',  ( 1.047444401652940007E-13, -3.673940397442059178E-15, 30.00000000000000000 ) ) ;
#79 = ORIENTED_EDGE ( 'NONE', *, *, #96, .T. ) ;
#80 = DESIGN_CONTEXT ( 'detailed design', #126, 'design' ) ;
#81 = FACE_BOUND ( 'NONE', #22, .T. ) ;
#82 = CARTESIAN_POINT ( 'NONE',  ( 0.0000000000000000000, 0.0000000000000000000, 0.0000000000000000000 ) ) ;
#83 = CIRCLE ( 'NONE', #31, 0.6350000000000008971 ) ;
#84 = PERSON_AND_ORGANIZATION_ROLE ( 'creator' ) ;
#85 = CALENDAR_DATE ( 2021, 8, 10 ) ;
#86 = DATE_AND_TIME ( #222, #6 ) ;
#87 = APPROVAL_DATE_TIME ( #86, #107 ) ;
#88 = EDGE_CURVE ( 'NONE', #73, #73, #146, .T. ) ;
#89 = VERTEX_POINT ( 'NONE', #2 ) ;
#90 = AXIS2_PLACEMENT_3D ( 'NONE', #108, #211, #130 ) ;
#91 = FACE_OUTER_BOUND ( 'NONE', #20, .T. ) ;
#92 = CARTESIAN_POINT ( 'NONE',  ( 3.561026704177514062E-14, -1.249040029638025724E-15, 10.19918584287041874 ) ) ;
#93 = ORIENTED_EDGE ( 'NONE', *, *, #96, .F. ) ;
#94 = DIRECTION ( 'NONE',  ( 3.491481338843133355E-15, -1.224646799147353207E-16, 1.000000000000000000 ) ) ;
#95 =( NAMED_UNIT ( * ) PLANE_ANGLE_UNIT ( ) SI_UNIT ( $, .RADIAN. ) );
#96 = EDGE_CURVE ( 'NONE', #170, #170, #83, .T. ) ;
#97 = APPLICATION_PROTOCOL_DEFINITION ( 'international standard', 'config_control_design', 1994, #111 ) ;
#98 = DIRECTION ( 'NONE',  ( 0.0000000000000000000, 1.000000000000000000, 0.0000000000000000000 ) ) ;
#99 = LOCAL_TIME ( 10, 12, 55.00000000000000000, #66 ) ;
#100 = PERSON_AND_ORGANIZATION ( #223, #104 ) ;
#101 = COORDINATED_UNIVERSAL_TIME_OFFSET ( 1, 0, .AHEAD. ) ;
#102 = PERSON_AND_ORGANIZATION_ROLE ( 'design_supplier' ) ;
#103 = APPROVAL_PERSON_ORGANIZATION ( #216, #1, #181 ) ;
#104 = ORGANIZATION ( 'UNSPECIFIED', 'UNSPECIFIED', '' ) ;
#105 = PERSON_AND_ORGANIZATION ( #223, #104 ) ;
#106 = ADVANCED_FACE ( 'NONE', ( #81, #129 ), #71, .T. ) ;
#107 = APPROVAL ( #123, 'UNSPECIFIED' ) ;
#108 = CARTESIAN_POINT ( 'NONE',  ( 1.040461438975253740E-13, -3.649447461459112464E-15, 29.80000000000000071 ) ) ;
#109 = CIRCLE ( 'NONE', #35, 0.6349999999999988987 ) ;
#110 = DIRECTION ( 'NONE',  ( -3.032960542342109047E-31, -1.000000000000000000, -8.537024980200837349E-17 ) ) ;
#111 = APPLICATION_CONTEXT ( 'configuration controlled 3d designs of mechanical parts and assemblies' ) ;
#112 = CARTESIAN_POINT ( 'NONE',  ( 1.047444401652940007E-13, 4.124339402320052999E-33, 30.00000000000000000 ) ) ;
#113 = FACE_OUTER_BOUND ( 'NONE', #194, .T. ) ;
#114 = DIRECTION ( 'NONE',  ( 4.275831445896958607E-31, 1.000000000000000000, 1.224646799147353207E-16 ) ) ;
#115 = ORIENTED_EDGE ( 'NONE', *, *, #155, .F. ) ;
#116 = EDGE_CURVE ( 'NONE', #137, #137, #180, .T. ) ;
#117 = CARTESIAN_POINT ( 'NONE',  ( 3.561026704177514062E-14, 0.7499999999999963363, 10.19918584287041874 ) ) ;
#118 = ORIENTED_EDGE ( 'NONE', *, *, #88, .T. ) ;
#119 = AXIS2_PLACEMENT_3D ( 'NONE', #58, #145, #9 ) ;
#120 = COORDINATED_UNIVERSAL_TIME_OFFSET ( 1, 0, .AHEAD. ) ;
#121 = APPROVAL_DATE_TIME ( #202, #1 ) ;
#122 = UNCERTAINTY_MEASURE_WITH_UNIT (LENGTH_MEASURE( 1.000000000000000082E-05 ), #195, 'distance_accuracy_value', 'NONE');
#123 = APPROVAL_STATUS ( 'not_yet_approved' ) ;
#124 = AXIS2_PLACEMENT_3D ( 'NONE', #147, #94, #60 ) ;
#125 = MANIFOLD_SOLID_BREP ( 'Corps-Déplacer/Copier1[1]', #200 ) ;
#126 = APPLICATION_CONTEXT ( 'configuration controlled 3d designs of mechanical parts and assemblies' ) ;
#127 = CIRCLE ( 'NONE', #90, 0.7500000000000000000 ) ;
#128 = ADVANCED_BREP_SHAPE_REPRESENTATION ( '957912', ( #125, #47, #201 ), #77 ) ;
#129 = FACE_OUTER_BOUND ( 'NONE', #174, .T. ) ;
#130 = DIRECTION ( 'NONE',  ( 0.0000000000000000000, 1.000000000000000000, 0.0000000000000000000 ) ) ;
#131 = ORIENTED_EDGE ( 'NONE', *, *, #116, .T. ) ;
#132 = CARTESIAN_POINT ( 'NONE',  ( 1.280037883690802473E-15, -4.489768510602149812E-17, 0.3666174209354159386 ) ) ;
#133 = DIRECTION ( 'NONE',  ( -3.491481338843133355E-15, 1.224646799147353207E-16, -1.000000000000000000 ) ) ;
#134 = DIRECTION ( 'NONE',  ( -3.491481338843133355E-15, 1.224646799147353207E-16, -1.000000000000000000 ) ) ;
#135 = CC_DESIGN_SECURITY_CLASSIFICATION ( #43, ( #15 ) ) ;
#136 = CC_DESIGN_PERSON_AND_ORGANIZATION_ASSIGNMENT ( #151, #182, ( #15 ) ) ;
#137 = VERTEX_POINT ( 'NONE', #117 ) ;
#138 = CALENDAR_DATE ( 2021, 8, 10 ) ;
#139 = CIRCLE ( 'NONE', #198, 0.5500000000000000444 ) ;
#140 = AXIS2_PLACEMENT_3D ( 'NONE', #112, #164, #114 ) ;
#141 = PERSON_AND_ORGANIZATION_ROLE ( 'classification_officer' ) ;
#142 = CC_DESIGN_PERSON_AND_ORGANIZATION_ASSIGNMENT ( #68, #141, ( #43 ) ) ;
#143 = CC_DESIGN_APPROVAL ( #1, ( #15 ) ) ;
#144 = DIRECTION ( 'NONE',  ( 0.0000000000000000000, 1.000000000000000000, 0.0000000000000000000 ) ) ;
#145 = DIRECTION ( 'NONE',  ( 3.491481338843133355E-15, -1.224646799147353207E-16, 1.000000000000000000 ) ) ;
#146 = CIRCLE ( 'NONE', #205, 0.6350000000000008971 ) ;
#147 = CARTESIAN_POINT ( 'NONE',  ( 3.491481338843133986E-14, -2.076806179161253047E-31, 10.00000000000000178 ) ) ;
#148 = ADVANCED_FACE ( 'NONE', ( #113 ), #210, .T. ) ;
#149 = DIRECTION ( 'NONE',  ( 3.032960542342109047E-31, 1.000000000000000000, 8.537024980200837349E-17 ) ) ;
#150 = EDGE_LOOP ( 'NONE', ( #39 ) ) ;
#151 = PERSON_AND_ORGANIZATION ( #223, #104 ) ;
#152 = CARTESIAN_POINT ( 'NONE',  ( 3.491481338843133986E-14, 0.6349999999999996758, 10.00000000000000178 ) ) ;
#153 = CARTESIAN_POINT ( 'NONE',  ( 1.047444401652940007E-13, -3.673940397442059178E-15, 30.00000000000000000 ) ) ;
#154 = DATE_AND_TIME ( #28, #184 ) ;
#155 = EDGE_CURVE ( 'NONE', #166, #166, #109, .T. ) ;
#156 = CC_DESIGN_PERSON_AND_ORGANIZATION_ASSIGNMENT ( #100, #84, ( #171 ) ) ;
#157 = DATE_TIME_ROLE ( 'classification_date' ) ;
#158 = CONICAL_SURFACE ( 'NONE', #62, 0.5500000000000000444, 0.7853981633974512766 ) ;
#159 = AXIS2_PLACEMENT_3D ( 'NONE', #189, #36, #144 ) ;
#160 = CARTESIAN_POINT ( 'NONE',  ( 0.0000000000000000000, 0.0000000000000000000, 0.0000000000000000000 ) ) ;
#161 = DIRECTION ( 'NONE',  ( 0.0000000000000000000, 1.000000000000000000, 0.0000000000000000000 ) ) ;
#162 = FACE_OUTER_BOUND ( 'NONE', #163, .T. ) ;
#163 = EDGE_LOOP ( 'NONE', ( #167 ) ) ;
#164 = DIRECTION ( 'NONE',  ( -3.491481338843133355E-15, 1.224646799147353207E-16, -1.000000000000000000 ) ) ;
#165 = DIRECTION ( 'NONE',  ( -3.491481338843133355E-15, 1.224646799147353207E-16, -1.000000000000000000 ) ) ;
#166 = VERTEX_POINT ( 'NONE', #11 ) ;
#167 = ORIENTED_EDGE ( 'NONE', *, *, #72, .T. ) ;
#168 = DIRECTION ( 'NONE',  ( 0.0000000000000000000, 0.0000000000000000000, 1.000000000000000000 ) ) ;
#169 = FACE_OUTER_BOUND ( 'NONE', #8, .T. ) ;
#170 = VERTEX_POINT ( 'NONE', #152 ) ;
#171 = PRODUCT_DEFINITION ( 'UNKNOWN', '', #15, #80 ) ;
#172 = CARTESIAN_POINT ( 'NONE',  ( 3.491481338843133986E-14, -1.224646799147353454E-15, 10.00000000000000178 ) ) ;
#173 = CC_DESIGN_DATE_AND_TIME_ASSIGNMENT ( #199, #49, ( #171 ) ) ;
#174 = EDGE_LOOP ( 'NONE', ( #131 ) ) ;
#175 = CARTESIAN_POINT ( 'NONE',  ( 0.0000000000000000000, 0.0000000000000000000, 0.0000000000000000000 ) ) ;
#176 = PLANE ( 'NONE',  #124 ) ;
#177 = CARTESIAN_POINT ( 'NONE',  ( 3.491481338843133986E-14, 0.6349999999999996758, 10.00000000000000178 ) ) ;
#178 = EDGE_LOOP ( 'NONE', ( #76 ) ) ;
#179 = APPROVAL_ROLE ( '' ) ;
#180 = CIRCLE ( 'NONE', #159, 0.7499999999999976685 ) ;
#181 = APPROVAL_ROLE ( '' ) ;
#182 = PERSON_AND_ORGANIZATION_ROLE ( 'creator' ) ;
#183 = SHAPE_DEFINITION_REPRESENTATION ( #33, #128 ) ;
#184 = LOCAL_TIME ( 10, 12, 55.00000000000000000, #120 ) ;
#185 = CC_DESIGN_APPROVAL ( #107, ( #43 ) ) ;
#186 = ADVANCED_FACE ( 'NONE', ( #190 ), #38, .F. ) ;
#187 = CYLINDRICAL_SURFACE ( 'NONE', #17, 0.7499999999999987788 ) ;
#188 = LOCAL_TIME ( 10, 12, 55.00000000000000000, #203 ) ;
#189 = CARTESIAN_POINT ( 'NONE',  ( 3.561026704177514062E-14, -1.249040029638025724E-15, 10.19918584287041874 ) ) ;
#190 = FACE_OUTER_BOUND ( 'NONE', #37, .T. ) ;
#191 = ORIENTED_EDGE ( 'NONE', *, *, #116, .F. ) ;
#192 = VERTEX_POINT ( 'NONE', #40 ) ;
#193 = PLANE ( 'NONE',  #119 ) ;
#194 = EDGE_LOOP ( 'NONE', ( #218 ) ) ;
#195 =( LENGTH_UNIT ( ) NAMED_UNIT ( * ) SI_UNIT ( .MILLI., .METRE. ) );
#196 = ORIENTED_EDGE ( 'NONE', *, *, #14, .F. ) ;
#197 = PERSON_AND_ORGANIZATION_ROLE ( 'design_owner' ) ;
#198 = AXIS2_PLACEMENT_3D ( 'NONE', #153, #27, #98 ) ;
#199 = DATE_AND_TIME ( #138, #99 ) ;
#200 = CLOSED_SHELL ( 'NONE', ( #69, #106, #30, #206, #186 ) ) ;
#201 = AXIS2_PLACEMENT_3D ( 'NONE', #82, #168, #63 ) ;
#202 = DATE_AND_TIME ( #85, #59 ) ;
#203 = COORDINATED_UNIVERSAL_TIME_OFFSET ( 1, 0, .AHEAD. ) ;
#204 = CC_DESIGN_APPROVAL ( #57, ( #171 ) ) ;
#205 = AXIS2_PLACEMENT_3D ( 'NONE', #172, #44, #21 ) ;
#206 = ADVANCED_FACE ( 'NONE', ( #16, #7 ), #158, .T. ) ;
#207 = PRODUCT ( '957912', '957912', '', ( #26 ) ) ;
#208 = CARTESIAN_POINT ( 'NONE',  ( 1.280037883690802473E-15, -4.489768510602149812E-17, 0.3666174209354159386 ) ) ;
#209 = DIRECTION ( 'NONE',  ( 3.491481338843133355E-15, -1.224646799147353207E-16, 1.000000000000000000 ) ) ;
#210 = CONICAL_SURFACE ( 'NONE', #48, 0.6349999999999988987, 1.047197551196592746 ) ;
#211 = DIRECTION ( 'NONE',  ( -3.491481338843133355E-15, 1.224646799147353207E-16, -1.000000000000000000 ) ) ;
#212 = DIRECTION ( 'NONE',  ( -3.491481338843133355E-15, 1.224646799147353207E-16, -1.000000000000000000 ) ) ;
#213 = EDGE_LOOP ( 'NONE', ( #64 ) ) ;
#214 = DIRECTION ( 'NONE',  ( -3.491481338843133355E-15, 1.224646799147353207E-16, -1.000000000000000000 ) ) ;
#215 = AXIS2_PLACEMENT_3D ( 'NONE', #92, #18, #61 ) ;
#216 = PERSON_AND_ORGANIZATION ( #223, #104 ) ;
#217 = CC_DESIGN_PERSON_AND_ORGANIZATION_ASSIGNMENT ( #65, #197, ( #207 ) ) ;
#218 = ORIENTED_EDGE ( 'NONE', *, *, #155, .T. ) ;
#219 = APPROVAL_DATE_TIME ( #154, #57 ) ;
#220 = APPROVAL_PERSON_ORGANIZATION ( #105, #107, #55 ) ;
#221 = SECURITY_CLASSIFICATION_LEVEL ( 'unclassified' ) ;
#222 = CALENDAR_DATE ( 2021, 8, 10 ) ;
#223 = PERSON ( 'UNSPECIFIED', 'UNSPECIFIED', 'UNSPECIFIED', ('UNSPECIFIED'), ('UNSPECIFIED'), ('UNSPECIFIED') ) ;
ENDSEC;
END-ISO-10303-21;
