ISO-10303-21;
HEADER;
FILE_DESCRIPTION (( 'STEP AP203' ),
    '1' );
FILE_NAME ('957902.step',
    '2021-10-08T08:12:52',
    ( '' ),
    ( '' ),
    'SwSTEP 2.0',
    'SolidWorks 2019',
    '' );
FILE_SCHEMA (( 'CONFIG_CONTROL_DESIGN' ));
ENDSEC;

DATA;
#1 = ORIENTED_EDGE ( 'NONE', *, *, #8, .T. ) ;
#2 = EDGE_LOOP ( 'NONE', ( #4 ) ) ;
#3 = PRODUCT ( '957902', '957902', '', ( #218 ) ) ;
#4 = ORIENTED_EDGE ( 'NONE', *, *, #142, .T. ) ;
#5 = APPROVAL_PERSON_ORGANIZATION ( #216, #68, #87 ) ;
#6 = EDGE_LOOP ( 'NONE', ( #76 ) ) ;
#7 = PERSON ( 'UNSPECIFIED', 'UNSPECIFIED', 'UNSPECIFIED', ('UNSPECIFIED'), ('UNSPECIFIED'), ('UNSPECIFIED') ) ;
#8 = EDGE_CURVE ( 'NONE', #161, #161, #183, .T. ) ;
#9 = CARTESIAN_POINT ( 'NONE',  ( 1.239721729873769280E-15, -4.348358478772159939E-17, 0.3550704155516232752 ) ) ;
#10 = PLANE ( 'NONE',  #143 ) ;
#11 = PERSON_AND_ORGANIZATION ( #7, #24 ) ;
#12 = DIRECTION ( 'NONE',  ( 3.131593405507706676E-31, 1.000000000000000000, 8.814651808825256477E-17 ) ) ;
#13 = PERSON_AND_ORGANIZATION ( #7, #24 ) ;
#14 = VERTEX_POINT ( 'NONE', #53 ) ;
#15 = CARTESIAN_POINT ( 'NONE',  ( 3.491481338843133355E-14, -1.224646799147353256E-15, 10.00000000000000000 ) ) ;
#16 =( LENGTH_UNIT ( ) NAMED_UNIT ( * ) SI_UNIT ( .MILLI., .METRE. ) );
#17 = CARTESIAN_POINT ( 'NONE',  ( 3.491481338843133355E-14, 0.6149999999999987699, 10.00000000000000000 ) ) ;
#18 = APPROVAL_STATUS ( 'not_yet_approved' ) ;
#19 = CC_DESIGN_PERSON_AND_ORGANIZATION_ASSIGNMENT ( #104, #30, ( #132 ) ) ;
#20 = AXIS2_PLACEMENT_3D ( 'NONE', #116, #70, #12 ) ;
#21 = CC_DESIGN_DATE_AND_TIME_ASSIGNMENT ( #86, #150, ( #140 ) ) ;
#22 = DIRECTION ( 'NONE',  ( 0.0000000000000000000, 1.000000000000000000, 0.0000000000000000000 ) ) ;
#23 = FACE_OUTER_BOUND ( 'NONE', #112, .T. ) ;
#24 = ORGANIZATION ( 'UNSPECIFIED', 'UNSPECIFIED', '' ) ;
#25 = CIRCLE ( 'NONE', #179, 0.6149999999999999911 ) ;
#26 = DESIGN_CONTEXT ( 'detailed design', #75, 'design' ) ;
#27 = PRODUCT_DEFINITION_SHAPE ( 'NONE', 'NONE',  #155 ) ;
#28 = DIRECTION ( 'NONE',  ( -3.491481338843133355E-15, 1.224646799147353207E-16, -1.000000000000000000 ) ) ;
#29 = DIRECTION ( 'NONE',  ( 0.0000000000000000000, 1.000000000000000000, 0.0000000000000000000 ) ) ;
#30 = PERSON_AND_ORGANIZATION_ROLE ( 'creator' ) ;
#31 = DIRECTION ( 'NONE',  ( -3.491481338843133355E-15, 1.224646799147353207E-16, -1.000000000000000000 ) ) ;
#32 = MANIFOLD_SOLID_BREP ( 'Corps-Déplacer/Copier1[2]', #90 ) ;
#33 = DATE_AND_TIME ( #147, #97 ) ;
#34 = MANIFOLD_SOLID_BREP ( 'Corps-Déplacer/Copier1[1]', #59 ) ;
#35 = DIRECTION ( 'NONE',  ( 4.275831445896958607E-31, 1.000000000000000000, 1.224646799147353207E-16 ) ) ;
#36 = AXIS2_PLACEMENT_3D ( 'NONE', #47, #197, #186 ) ;
#37 = CARTESIAN_POINT ( 'NONE',  ( 1.047444401652940007E-13, 4.124339402320052999E-33, 30.00000000000000000 ) ) ;
#38 = CC_DESIGN_PERSON_AND_ORGANIZATION_ASSIGNMENT ( #130, #203, ( #3 ) ) ;
#39 = COORDINATED_UNIVERSAL_TIME_OFFSET ( 1, 0, .AHEAD. ) ;
#40 = AXIS2_PLACEMENT_3D ( 'NONE', #165, #129, #107 ) ;
#41 = ADVANCED_FACE ( 'NONE', ( #64, #23 ), #100, .T. ) ;
#42 = CC_DESIGN_PERSON_AND_ORGANIZATION_ASSIGNMENT ( #11, #84, ( #140 ) ) ;
#43 = ORIENTED_EDGE ( 'NONE', *, *, #164, .F. ) ;
#44 = EDGE_LOOP ( 'NONE', ( #207 ) ) ;
#45 = AXIS2_PLACEMENT_3D ( 'NONE', #108, #48, #220 ) ;
#46 = DIRECTION ( 'NONE',  ( 0.0000000000000000000, 1.000000000000000000, 0.0000000000000000000 ) ) ;
#47 = CARTESIAN_POINT ( 'NONE',  ( 3.491481338843133355E-14, 4.611761331685194491E-33, 10.00000000000000000 ) ) ;
#48 = DIRECTION ( 'NONE',  ( 0.0000000000000000000, 0.0000000000000000000, 1.000000000000000000 ) ) ;
#49 = ADVANCED_FACE ( 'NONE', ( #215, #151 ), #198, .T. ) ;
#50 = APPROVAL_PERSON_ORGANIZATION ( #190, #99, #163 ) ;
#51 = DIRECTION ( 'NONE',  ( 3.491481338843133355E-15, -1.224646799147353207E-16, 1.000000000000000000 ) ) ;
#52 =( NAMED_UNIT ( * ) PLANE_ANGLE_UNIT ( ) SI_UNIT ( $, .RADIAN. ) );
#53 = CARTESIAN_POINT ( 'NONE',  ( 3.491481338843133355E-14, 0.6149999999999987699, 10.00000000000000000 ) ) ;
#54 = CALENDAR_DATE ( 2021, 8, 10 ) ;
#55 = DIRECTION ( 'NONE',  ( 3.491481338843133355E-15, -1.224646799147353207E-16, 1.000000000000000000 ) ) ;
#56 = EDGE_CURVE ( 'NONE', #103, #103, #101, .T. ) ;
#57 = CALENDAR_DATE ( 2021, 8, 10 ) ;
#58 = APPLICATION_CONTEXT ( 'configuration controlled 3d designs of mechanical parts and assemblies' ) ;
#59 = CLOSED_SHELL ( 'NONE', ( #191, #134, #41, #49, #209 ) ) ;
#60 = CONICAL_SURFACE ( 'NONE', #158, 0.7499999999999976685, 0.5235987755982928205 ) ;
#61 = EDGE_CURVE ( 'NONE', #14, #14, #25, .T. ) ;
#62 = ORIENTED_EDGE ( 'NONE', *, *, #193, .F. ) ;
#63 = CC_DESIGN_APPROVAL ( #181, ( #132 ) ) ;
#64 = FACE_OUTER_BOUND ( 'NONE', #98, .T. ) ;
#65 = LOCAL_TIME ( 10, 12, 52.00000000000000000, #69 ) ;
#66 = CARTESIAN_POINT ( 'NONE',  ( 1.239721729873769477E-15, 0.6149999999999987699, 0.3550704155516233307 ) ) ;
#67 = FACE_OUTER_BOUND ( 'NONE', #6, .T. ) ;
#68 = APPROVAL ( #168, 'UNSPECIFIED' ) ;
#69 = COORDINATED_UNIVERSAL_TIME_OFFSET ( 1, 0, .AHEAD. ) ;
#70 = DIRECTION ( 'NONE',  ( -3.491481338843133355E-15, 1.224646799147353207E-16, -1.000000000000000000 ) ) ;
#71 = DIRECTION ( 'NONE',  ( -3.491481338843133355E-15, 1.224646799147353207E-16, -1.000000000000000000 ) ) ;
#72 = COORDINATED_UNIVERSAL_TIME_OFFSET ( 1, 0, .AHEAD. ) ;
#73 = FACE_BOUND ( 'NONE', #127, .T. ) ;
#74 = DATE_TIME_ROLE ( 'creation_date' ) ;
#75 = APPLICATION_CONTEXT ( 'configuration controlled 3d designs of mechanical parts and assemblies' ) ;
#76 = ORIENTED_EDGE ( 'NONE', *, *, #61, .T. ) ;
#77 = EDGE_LOOP ( 'NONE', ( #160 ) ) ;
#78 = APPROVAL_PERSON_ORGANIZATION ( #13, #181, #222 ) ;
#79 = AXIS2_PLACEMENT_3D ( 'NONE', #176, #175, #22 ) ;
#80 = EDGE_LOOP ( 'NONE', ( #114 ) ) ;
#81 = DIRECTION ( 'NONE',  ( 0.0000000000000000000, 1.000000000000000000, 0.0000000000000000000 ) ) ;
#82 = CIRCLE ( 'NONE', #20, 0.6149999999999987699 ) ;
#83 = DIRECTION ( 'NONE',  ( 4.275831445896958607E-31, 1.000000000000000000, 1.224646799147353207E-16 ) ) ;
#84 = PERSON_AND_ORGANIZATION_ROLE ( 'classification_officer' ) ;
#85 = CARTESIAN_POINT ( 'NONE',  ( 0.0000000000000000000, 0.0000000000000000000, 0.0000000000000000000 ) ) ;
#86 = DATE_AND_TIME ( #166, #65 ) ;
#87 = APPROVAL_ROLE ( '' ) ;
#88 = LOCAL_TIME ( 10, 12, 52.00000000000000000, #119 ) ;
#89 = CARTESIAN_POINT ( 'NONE',  ( 0.0000000000000000000, 0.0000000000000000000, 0.0000000000000000000 ) ) ;
#90 = CLOSED_SHELL ( 'NONE', ( #96, #138, #173 ) ) ;
#91 = CARTESIAN_POINT ( 'NONE',  ( 3.573121550322624710E-14, 0.7499999999999963363, 10.23382685902179823 ) ) ;
#92 = SECURITY_CLASSIFICATION_LEVEL ( 'unclassified' ) ;
#93 = AXIS2_PLACEMENT_3D ( 'NONE', #85, #71, #83 ) ;
#94 = AXIS2_PLACEMENT_3D ( 'NONE', #89, #148, #137 ) ;
#95 = SHAPE_DEFINITION_REPRESENTATION ( #27, #180 ) ;
#96 = ADVANCED_FACE ( 'NONE', ( #200 ), #205, .T. ) ;
#97 = LOCAL_TIME ( 10, 12, 52.00000000000000000, #39 ) ;
#98 = EDGE_LOOP ( 'NONE', ( #62 ) ) ;
#99 = APPROVAL ( #157, 'UNSPECIFIED' ) ;
#100 = CYLINDRICAL_SURFACE ( 'NONE', #94, 0.7499999999999987788 ) ;
#101 = CIRCLE ( 'NONE', #125, 0.7500000000000000000 ) ;
#102 = FACE_OUTER_BOUND ( 'NONE', #77, .T. ) ;
#103 = VERTEX_POINT ( 'NONE', #105 ) ;
#104 = PERSON_AND_ORGANIZATION ( #7, #24 ) ;
#105 = CARTESIAN_POINT ( 'NONE',  ( 1.040461438975253740E-13, 0.7499999999999963363, 29.80000000000000071 ) ) ;
#106 = PERSON_AND_ORGANIZATION ( #7, #24 ) ;
#107 = DIRECTION ( 'NONE',  ( 0.0000000000000000000, 1.000000000000000000, 0.0000000000000000000 ) ) ;
#108 = CARTESIAN_POINT ( 'NONE',  ( 0.0000000000000000000, 0.0000000000000000000, 0.0000000000000000000 ) ) ;
#109 = PERSON_AND_ORGANIZATION ( #7, #24 ) ;
#110 = LOCAL_TIME ( 10, 12, 52.00000000000000000, #153 ) ;
#111 = CIRCLE ( 'NONE', #118, 0.7499999999999976685 ) ;
#112 = EDGE_LOOP ( 'NONE', ( #159 ) ) ;
#113 = CC_DESIGN_DATE_AND_TIME_ASSIGNMENT ( #170, #74, ( #155 ) ) ;
#114 = ORIENTED_EDGE ( 'NONE', *, *, #193, .T. ) ;
#115 = EDGE_LOOP ( 'NONE', ( #210 ) ) ;
#116 = CARTESIAN_POINT ( 'NONE',  ( 1.239721729873769280E-15, -4.348358478772159939E-17, 0.3550704155516232752 ) ) ;
#117 = DIRECTION ( 'NONE',  ( 0.0000000000000000000, 1.000000000000000000, 0.0000000000000000000 ) ) ;
#118 = AXIS2_PLACEMENT_3D ( 'NONE', #120, #135, #117 ) ;
#119 = COORDINATED_UNIVERSAL_TIME_OFFSET ( 1, 0, .AHEAD. ) ;
#120 = CARTESIAN_POINT ( 'NONE',  ( 3.573121550322624710E-14, -1.253282330592925703E-15, 10.23382685902179823 ) ) ;
#121 = APPROVAL_DATE_TIME ( #184, #99 ) ;
#122 = DIRECTION ( 'NONE',  ( -4.275831445896958607E-31, -1.000000000000000000, -1.224646799147353207E-16 ) ) ;
#123 = DATE_AND_TIME ( #54, #110 ) ;
#124 = CARTESIAN_POINT ( 'NONE',  ( 1.040461438975253740E-13, -3.649447461459112464E-15, 29.80000000000000071 ) ) ;
#125 = AXIS2_PLACEMENT_3D ( 'NONE', #124, #167, #46 ) ;
#126 = CC_DESIGN_APPROVAL ( #99, ( #155 ) ) ;
#127 = EDGE_LOOP ( 'NONE', ( #144 ) ) ;
#128 = FACE_OUTER_BOUND ( 'NONE', #80, .T. ) ;
#129 = DIRECTION ( 'NONE',  ( -3.491481338843133355E-15, 1.224646799147353207E-16, -1.000000000000000000 ) ) ;
#130 = PERSON_AND_ORGANIZATION ( #7, #24 ) ;
#131 = CARTESIAN_POINT ( 'NONE',  ( 3.573121550322624710E-14, -1.253282330592925703E-15, 10.23382685902179823 ) ) ;
#132 = PRODUCT_DEFINITION_FORMATION_WITH_SPECIFIED_SOURCE ( 'ANY', '', #3, .NOT_KNOWN. ) ;
#133 = APPLICATION_PROTOCOL_DEFINITION ( 'international standard', 'config_control_design', 1994, #75 ) ;
#134 = ADVANCED_FACE ( 'NONE', ( #73, #128 ), #60, .T. ) ;
#135 = DIRECTION ( 'NONE',  ( -3.491481338843133355E-15, 1.224646799147353207E-16, -1.000000000000000000 ) ) ;
#136 = APPROVAL_DATE_TIME ( #33, #181 ) ;
#137 = DIRECTION ( 'NONE',  ( 4.275831445896959482E-31, 1.000000000000000000, 1.224646799147353207E-16 ) ) ;
#138 = ADVANCED_FACE ( 'NONE', ( #212, #202 ), #213, .T. ) ;
#139 = PERSON_AND_ORGANIZATION_ROLE ( 'creator' ) ;
#140 = SECURITY_CLASSIFICATION ( '', '', #92 ) ;
#141 = ORIENTED_EDGE ( 'NONE', *, *, #56, .F. ) ;
#142 = EDGE_CURVE ( 'NONE', #146, #146, #82, .T. ) ;
#143 = AXIS2_PLACEMENT_3D ( 'NONE', #37, #31, #35 ) ;
#144 = ORIENTED_EDGE ( 'NONE', *, *, #61, .F. ) ;
#145 = EDGE_LOOP ( 'NONE', ( #1 ) ) ;
#146 = VERTEX_POINT ( 'NONE', #66 ) ;
#147 = CALENDAR_DATE ( 2021, 8, 10 ) ;
#148 = DIRECTION ( 'NONE',  ( -3.491481338843133355E-15, 1.224646799147353207E-16, -1.000000000000000000 ) ) ;
#149 = CC_DESIGN_PERSON_AND_ORGANIZATION_ASSIGNMENT ( #109, #139, ( #155 ) ) ;
#150 = DATE_TIME_ROLE ( 'classification_date' ) ;
#151 = FACE_BOUND ( 'NONE', #145, .T. ) ;
#152 = CC_DESIGN_APPROVAL ( #68, ( #140 ) ) ;
#153 = COORDINATED_UNIVERSAL_TIME_OFFSET ( 1, 0, .AHEAD. ) ;
#154 = DIRECTION ( 'NONE',  ( -3.491481338843133355E-15, 1.224646799147353207E-16, -1.000000000000000000 ) ) ;
#155 = PRODUCT_DEFINITION ( 'UNKNOWN', '', #132, #26 ) ;
#156 = PRODUCT_RELATED_PRODUCT_CATEGORY ( 'detail', '', ( #3 ) ) ;
#157 = APPROVAL_STATUS ( 'not_yet_approved' ) ;
#158 = AXIS2_PLACEMENT_3D ( 'NONE', #131, #55, #217 ) ;
#159 = ORIENTED_EDGE ( 'NONE', *, *, #56, .T. ) ;
#160 = ORIENTED_EDGE ( 'NONE', *, *, #8, .F. ) ;
#161 = VERTEX_POINT ( 'NONE', #169 ) ;
#162 = FACE_OUTER_BOUND ( 'NONE', #174, .T. ) ;
#163 = APPROVAL_ROLE ( '' ) ;
#164 = EDGE_CURVE ( 'NONE', #171, #171, #208, .T. ) ;
#165 = CARTESIAN_POINT ( 'NONE',  ( 1.047444401652940007E-13, -3.673940397442059178E-15, 30.00000000000000000 ) ) ;
#166 = CALENDAR_DATE ( 2021, 8, 10 ) ;
#167 = DIRECTION ( 'NONE',  ( -3.491481338843133355E-15, 1.224646799147353207E-16, -1.000000000000000000 ) ) ;
#168 = APPROVAL_STATUS ( 'not_yet_approved' ) ;
#169 = CARTESIAN_POINT ( 'NONE',  ( 1.047444401652940007E-13, 0.5499999999999963807, 30.00000000000000000 ) ) ;
#170 = DATE_AND_TIME ( #214, #172 ) ;
#171 = VERTEX_POINT ( 'NONE', #17 ) ;
#172 = LOCAL_TIME ( 10, 12, 52.00000000000000000, #72 ) ;
#173 = ADVANCED_FACE ( 'NONE', ( #162 ), #195, .T. ) ;
#174 = EDGE_LOOP ( 'NONE', ( #43 ) ) ;
#175 = DIRECTION ( 'NONE',  ( -3.491481338843133355E-15, 1.224646799147353207E-16, -1.000000000000000000 ) ) ;
#176 = CARTESIAN_POINT ( 'NONE',  ( 1.047444401652940007E-13, -3.673940397442059178E-15, 30.00000000000000000 ) ) ;
#177 = AXIS2_PLACEMENT_3D ( 'NONE', #187, #51, #122 ) ;
#178 = EDGE_LOOP ( 'NONE', ( #141 ) ) ;
#179 = AXIS2_PLACEMENT_3D ( 'NONE', #182, #154, #81 ) ;
#180 = ADVANCED_BREP_SHAPE_REPRESENTATION ( '957902', ( #34, #32, #45 ), #223 ) ;
#181 = APPROVAL ( #18, 'UNSPECIFIED' ) ;
#182 = CARTESIAN_POINT ( 'NONE',  ( 3.491481338843133355E-14, -1.224646799147353256E-15, 10.00000000000000000 ) ) ;
#183 = CIRCLE ( 'NONE', #79, 0.5500000000000000444 ) ;
#184 = DATE_AND_TIME ( #57, #88 ) ;
#185 = UNCERTAINTY_MEASURE_WITH_UNIT (LENGTH_MEASURE( 1.000000000000000082E-05 ), #16, 'distance_accuracy_value', 'NONE');
#186 = DIRECTION ( 'NONE',  ( -4.275831445896958607E-31, -1.000000000000000000, -1.224646799147353207E-16 ) ) ;
#187 = CARTESIAN_POINT ( 'NONE',  ( 3.491481338843133355E-14, 4.611761331685194491E-33, 10.00000000000000000 ) ) ;
#188 = APPROVAL_DATE_TIME ( #123, #68 ) ;
#189 = PLANE ( 'NONE',  #177 ) ;
#190 = PERSON_AND_ORGANIZATION ( #7, #24 ) ;
#191 = ADVANCED_FACE ( 'NONE', ( #67 ), #189, .F. ) ;
#192 = CC_DESIGN_PERSON_AND_ORGANIZATION_ASSIGNMENT ( #106, #201, ( #132 ) ) ;
#193 = EDGE_CURVE ( 'NONE', #221, #221, #111, .T. ) ;
#194 = CC_DESIGN_SECURITY_CLASSIFICATION ( #140, ( #132 ) ) ;
#195 = PLANE ( 'NONE',  #36 ) ;
#196 = DIRECTION ( 'NONE',  ( 3.491481338843133355E-15, -1.224646799147353207E-16, 1.000000000000000000 ) ) ;
#197 = DIRECTION ( 'NONE',  ( 3.491481338843133355E-15, -1.224646799147353207E-16, 1.000000000000000000 ) ) ;
#198 = CONICAL_SURFACE ( 'NONE', #40, 0.5500000000000000444, 0.7853981633974512766 ) ;
#199 = APPLICATION_PROTOCOL_DEFINITION ( 'international standard', 'config_control_design', 1994, #58 ) ;
#200 = FACE_OUTER_BOUND ( 'NONE', #2, .T. ) ;
#201 = PERSON_AND_ORGANIZATION_ROLE ( 'design_supplier' ) ;
#202 = FACE_OUTER_BOUND ( 'NONE', #115, .T. ) ;
#203 = PERSON_AND_ORGANIZATION_ROLE ( 'design_owner' ) ;
#204 =( NAMED_UNIT ( * ) SI_UNIT ( $, .STERADIAN. ) SOLID_ANGLE_UNIT ( ) );
#205 = CONICAL_SURFACE ( 'NONE', #206, 0.6149999999999987699, 1.047197551196592746 ) ;
#206 = AXIS2_PLACEMENT_3D ( 'NONE', #9, #196, #219 ) ;
#207 = ORIENTED_EDGE ( 'NONE', *, *, #142, .F. ) ;
#208 = CIRCLE ( 'NONE', #211, 0.6149999999999999911 ) ;
#209 = ADVANCED_FACE ( 'NONE', ( #102 ), #10, .F. ) ;
#210 = ORIENTED_EDGE ( 'NONE', *, *, #164, .T. ) ;
#211 = AXIS2_PLACEMENT_3D ( 'NONE', #15, #28, #29 ) ;
#212 = FACE_OUTER_BOUND ( 'NONE', #44, .T. ) ;
#213 = CYLINDRICAL_SURFACE ( 'NONE', #93, 0.6149999999999994360 ) ;
#214 = CALENDAR_DATE ( 2021, 8, 10 ) ;
#215 = FACE_OUTER_BOUND ( 'NONE', #178, .T. ) ;
#216 = PERSON_AND_ORGANIZATION ( #7, #24 ) ;
#217 = DIRECTION ( 'NONE',  ( 0.0000000000000000000, -1.000000000000000000, 0.0000000000000000000 ) ) ;
#218 = MECHANICAL_CONTEXT ( 'NONE', #58, 'mechanical' ) ;
#219 = DIRECTION ( 'NONE',  ( -3.131593405507706676E-31, -1.000000000000000000, -8.814651808825256477E-17 ) ) ;
#220 = DIRECTION ( 'NONE',  ( 1.000000000000000000, 0.0000000000000000000, 0.0000000000000000000 ) ) ;
#221 = VERTEX_POINT ( 'NONE', #91 ) ;
#222 = APPROVAL_ROLE ( '' ) ;
#223 =( GEOMETRIC_REPRESENTATION_CONTEXT ( 3 ) GLOBAL_UNCERTAINTY_ASSIGNED_CONTEXT ( ( #185 ) ) GLOBAL_UNIT_ASSIGNED_CONTEXT ( ( #16, #52, #204 ) ) REPRESENTATION_CONTEXT ( 'NONE', 'WORKASPACE' ) );
ENDSEC;
END-ISO-10303-21;
