ISO-10303-21;
HEADER;
FILE_DESCRIPTION (( 'STEP AP203' ),
    '1' );
FILE_NAME ('957901.step',
    '2021-10-08T08:12:49',
    ( '' ),
    ( '' ),
    'SwSTEP 2.0',
    'SolidWorks 2019',
    '' );
FILE_SCHEMA (( 'CONFIG_CONTROL_DESIGN' ));
ENDSEC;

DATA;
#1 = DATE_TIME_ROLE ( 'classification_date' ) ;
#2 = ORIENTED_EDGE ( 'NONE', *, *, #32, .T. ) ;
#3 = CONICAL_SURFACE ( 'NONE', #174, 0.5500000000000000444, 0.7853981633974512766 ) ;
#4 = EDGE_LOOP ( 'NONE', ( #60 ) ) ;
#5 = DIRECTION ( 'NONE',  ( 0.0000000000000000000, 1.000000000000000000, 0.0000000000000000000 ) ) ;
#6 = DIRECTION ( 'NONE',  ( 3.491481338843133355E-15, -1.224646799147353207E-16, 1.000000000000000000 ) ) ;
#7 = CIRCLE ( 'NONE', #208, 0.7499999999999976685 ) ;
#8 = PLANE ( 'NONE',  #22 ) ;
#9 = FACE_OUTER_BOUND ( 'NONE', #106, .T. ) ;
#10 = DIRECTION ( 'NONE',  ( 0.0000000000000000000, 1.000000000000000000, 0.0000000000000000000 ) ) ;
#11 = APPLICATION_PROTOCOL_DEFINITION ( 'international standard', 'config_control_design', 1994, #71 ) ;
#12 =( LENGTH_UNIT ( ) NAMED_UNIT ( * ) SI_UNIT ( .MILLI., .METRE. ) );
#13 = ADVANCED_FACE ( 'NONE', ( #126, #164 ), #37, .T. ) ;
#14 = DATE_AND_TIME ( #119, #199 ) ;
#15 = VERTEX_POINT ( 'NONE', #84 ) ;
#16 = AXIS2_PLACEMENT_3D ( 'NONE', #61, #162, #46 ) ;
#17 = DIRECTION ( 'NONE',  ( 1.000000000000000000, 0.0000000000000000000, 0.0000000000000000000 ) ) ;
#18 = APPROVAL_DATE_TIME ( #121, #31 ) ;
#19 = MECHANICAL_CONTEXT ( 'NONE', #71, 'mechanical' ) ;
#20 = EDGE_CURVE ( 'NONE', #15, #15, #189, .T. ) ;
#21 = EDGE_LOOP ( 'NONE', ( #159 ) ) ;
#22 = AXIS2_PLACEMENT_3D ( 'NONE', #112, #77, #213 ) ;
#23 = PRODUCT_DEFINITION_SHAPE ( 'NONE', 'NONE',  #171 ) ;
#24 = ORIENTED_EDGE ( 'NONE', *, *, #20, .T. ) ;
#25 = FACE_OUTER_BOUND ( 'NONE', #142, .T. ) ;
#26 = CLOSED_SHELL ( 'NONE', ( #139, #13, #109, #58, #188 ) ) ;
#27 = CARTESIAN_POINT ( 'NONE',  ( 3.491481338843133986E-14, -2.078680878889580519E-31, 10.00000000000000178 ) ) ;
#28 = DIRECTION ( 'NONE',  ( -4.275831445896958607E-31, -1.000000000000000000, -1.224646799147353207E-16 ) ) ;
#29 = FACE_OUTER_BOUND ( 'NONE', #111, .T. ) ;
#30 = CC_DESIGN_APPROVAL ( #195, ( #161 ) ) ;
#31 = APPROVAL ( #170, 'UNSPECIFIED' ) ;
#32 = EDGE_CURVE ( 'NONE', #68, #68, #220, .T. ) ;
#33 = DIRECTION ( 'NONE',  ( -3.157262203913507572E-31, -1.000000000000000000, -8.886903053159889787E-17 ) ) ;
#34 = PERSON_AND_ORGANIZATION ( #191, #178 ) ;
#35 = COORDINATED_UNIVERSAL_TIME_OFFSET ( 1, 0, .AHEAD. ) ;
#36 = APPROVAL_ROLE ( '' ) ;
#37 = CONICAL_SURFACE ( 'NONE', #93, 0.7499999999999976685, 0.5235987755982958181 ) ;
#38 = DATE_AND_TIME ( #117, #48 ) ;
#39 = PERSON_AND_ORGANIZATION ( #191, #178 ) ;
#40 = CC_DESIGN_PERSON_AND_ORGANIZATION_ASSIGNMENT ( #98, #204, ( #97 ) ) ;
#41 = AXIS2_PLACEMENT_3D ( 'NONE', #94, #45, #110 ) ;
#42 = ORIENTED_EDGE ( 'NONE', *, *, #20, .F. ) ;
#43 = ORIENTED_EDGE ( 'NONE', *, *, #211, .T. ) ;
#44 = CARTESIAN_POINT ( 'NONE',  ( 0.0000000000000000000, 0.0000000000000000000, 0.0000000000000000000 ) ) ;
#45 = DIRECTION ( 'NONE',  ( -3.491481338843133355E-15, 1.224646799147353207E-16, -1.000000000000000000 ) ) ;
#46 = DIRECTION ( 'NONE',  ( 0.0000000000000000000, 1.000000000000000000, 0.0000000000000000000 ) ) ;
#47 = MANIFOLD_SOLID_BREP ( 'Corps-Déplacer/Copier1[2]', #66 ) ;
#48 = LOCAL_TIME ( 10, 12, 49.00000000000000000, #151 ) ;
#49 = FACE_OUTER_BOUND ( 'NONE', #104, .T. ) ;
#50 = DIRECTION ( 'NONE',  ( 4.275831445896959482E-31, 1.000000000000000000, 1.224646799147353207E-16 ) ) ;
#51 = UNCERTAINTY_MEASURE_WITH_UNIT (LENGTH_MEASURE( 1.000000000000000082E-05 ), #12, 'distance_accuracy_value', 'NONE');
#52 = VERTEX_POINT ( 'NONE', #183 ) ;
#53 = APPROVAL_PERSON_ORGANIZATION ( #55, #91, #118 ) ;
#54 = COORDINATED_UNIVERSAL_TIME_OFFSET ( 1, 0, .AHEAD. ) ;
#55 = PERSON_AND_ORGANIZATION ( #191, #178 ) ;
#56 = PERSON_AND_ORGANIZATION_ROLE ( 'creator' ) ;
#57 =( GEOMETRIC_REPRESENTATION_CONTEXT ( 3 ) GLOBAL_UNCERTAINTY_ASSIGNED_CONTEXT ( ( #51 ) ) GLOBAL_UNIT_ASSIGNED_CONTEXT ( ( #12, #99, #221 ) ) REPRESENTATION_CONTEXT ( 'NONE', 'WORKASPACE' ) );
#58 = ADVANCED_FACE ( 'NONE', ( #176, #63 ), #3, .T. ) ;
#59 = APPROVAL_PERSON_ORGANIZATION ( #34, #195, #167 ) ;
#60 = ORIENTED_EDGE ( 'NONE', *, *, #157, .T. ) ;
#61 = CARTESIAN_POINT ( 'NONE',  ( 3.491481338843133986E-14, -1.224646799147353454E-15, 10.00000000000000178 ) ) ;
#62 = CIRCLE ( 'NONE', #85, 0.5500000000000000444 ) ;
#63 = FACE_BOUND ( 'NONE', #79, .T. ) ;
#64 = DIRECTION ( 'NONE',  ( -3.491481338843133355E-15, 1.224646799147353207E-16, -1.000000000000000000 ) ) ;
#65 = DIRECTION ( 'NONE',  ( -4.275831445896958607E-31, -1.000000000000000000, -1.224646799147353207E-16 ) ) ;
#66 = CLOSED_SHELL ( 'NONE', ( #219, #131, #196 ) ) ;
#67 = FACE_OUTER_BOUND ( 'NONE', #4, .T. ) ;
#68 = VERTEX_POINT ( 'NONE', #132 ) ;
#69 = DATE_AND_TIME ( #222, #207 ) ;
#70 = CONICAL_SURFACE ( 'NONE', #122, 0.6099999999999987654, 1.047197551196592746 ) ;
#71 = APPLICATION_CONTEXT ( 'configuration controlled 3d designs of mechanical parts and assemblies' ) ;
#72 = CALENDAR_DATE ( 2021, 8, 10 ) ;
#73 = CC_DESIGN_APPROVAL ( #31, ( #97 ) ) ;
#74 = CC_DESIGN_PERSON_AND_ORGANIZATION_ASSIGNMENT ( #87, #103, ( #161 ) ) ;
#75 = EDGE_CURVE ( 'NONE', #149, #149, #7, .T. ) ;
#76 = FACE_OUTER_BOUND ( 'NONE', #21, .T. ) ;
#77 = DIRECTION ( 'NONE',  ( -3.491481338843133355E-15, 1.224646799147353207E-16, -1.000000000000000000 ) ) ;
#78 = EDGE_CURVE ( 'NONE', #217, #217, #215, .T. ) ;
#79 = EDGE_LOOP ( 'NONE', ( #43 ) ) ;
#80 = DESIGN_CONTEXT ( 'detailed design', #123, 'design' ) ;
#81 = CARTESIAN_POINT ( 'NONE',  ( 3.491481338843133986E-14, -1.224646799147353454E-15, 10.00000000000000178 ) ) ;
#82 = CARTESIAN_POINT ( 'NONE',  ( 1.047444401652940007E-13, -3.673940397442059178E-15, 30.00000000000000000 ) ) ;
#83 = CC_DESIGN_APPROVAL ( #91, ( #171 ) ) ;
#84 = CARTESIAN_POINT ( 'NONE',  ( 1.229642691419511129E-15, 0.6099999999999987654, 0.3521836642056750954 ) ) ;
#85 = AXIS2_PLACEMENT_3D ( 'NONE', #113, #180, #95 ) ;
#86 = APPROVAL_STATUS ( 'not_yet_approved' ) ;
#87 = PERSON_AND_ORGANIZATION ( #191, #178 ) ;
#88 = PERSON_AND_ORGANIZATION_ROLE ( 'creator' ) ;
#89 = EDGE_LOOP ( 'NONE', ( #125 ) ) ;
#90 = AXIS2_PLACEMENT_3D ( 'NONE', #216, #96, #160 ) ;
#91 = APPROVAL ( #86, 'UNSPECIFIED' ) ;
#92 = CARTESIAN_POINT ( 'NONE',  ( 3.576145261858901583E-14, -1.254342905831650550E-15, 10.24248711305964044 ) ) ;
#93 = AXIS2_PLACEMENT_3D ( 'NONE', #145, #147, #114 ) ;
#94 = CARTESIAN_POINT ( 'NONE',  ( 0.0000000000000000000, 0.0000000000000000000, 0.0000000000000000000 ) ) ;
#95 = DIRECTION ( 'NONE',  ( 0.0000000000000000000, 1.000000000000000000, 0.0000000000000000000 ) ) ;
#96 = DIRECTION ( 'NONE',  ( -3.491481338843133355E-15, 1.224646799147353207E-16, -1.000000000000000000 ) ) ;
#97 = SECURITY_CLASSIFICATION ( '', '', #133 ) ;
#98 = PERSON_AND_ORGANIZATION ( #191, #178 ) ;
#99 =( NAMED_UNIT ( * ) PLANE_ANGLE_UNIT ( ) SI_UNIT ( $, .RADIAN. ) );
#100 = COORDINATED_UNIVERSAL_TIME_OFFSET ( 1, 0, .AHEAD. ) ;
#101 = LOCAL_TIME ( 10, 12, 49.00000000000000000, #54 ) ;
#102 = PERSON_AND_ORGANIZATION ( #191, #178 ) ;
#103 = PERSON_AND_ORGANIZATION_ROLE ( 'design_supplier' ) ;
#104 = EDGE_LOOP ( 'NONE', ( #2 ) ) ;
#105 = CC_DESIGN_PERSON_AND_ORGANIZATION_ASSIGNMENT ( #153, #88, ( #171 ) ) ;
#106 = EDGE_LOOP ( 'NONE', ( #209 ) ) ;
#107 = LOCAL_TIME ( 10, 12, 49.00000000000000000, #35 ) ;
#108 = EDGE_LOOP ( 'NONE', ( #175 ) ) ;
#109 = ADVANCED_FACE ( 'NONE', ( #9, #49 ), #148, .T. ) ;
#110 = DIRECTION ( 'NONE',  ( 4.275831445896958607E-31, 1.000000000000000000, 1.224646799147353207E-16 ) ) ;
#111 = EDGE_LOOP ( 'NONE', ( #42 ) ) ;
#112 = CARTESIAN_POINT ( 'NONE',  ( 1.047444401652940007E-13, 4.124339402320052999E-33, 30.00000000000000000 ) ) ;
#113 = CARTESIAN_POINT ( 'NONE',  ( 1.047444401652940007E-13, -3.673940397442059178E-15, 30.00000000000000000 ) ) ;
#114 = DIRECTION ( 'NONE',  ( 0.0000000000000000000, -1.000000000000000000, 0.0000000000000000000 ) ) ;
#115 = CARTESIAN_POINT ( 'NONE',  ( 3.491481338843133986E-14, 0.6099999999999994316, 10.00000000000000178 ) ) ;
#116 = CC_DESIGN_PERSON_AND_ORGANIZATION_ASSIGNMENT ( #218, #206, ( #192 ) ) ;
#117 = CALENDAR_DATE ( 2021, 8, 10 ) ;
#118 = APPROVAL_ROLE ( '' ) ;
#119 = CALENDAR_DATE ( 2021, 8, 10 ) ;
#120 = AXIS2_PLACEMENT_3D ( 'NONE', #81, #163, #194 ) ;
#121 = DATE_AND_TIME ( #202, #101 ) ;
#122 = AXIS2_PLACEMENT_3D ( 'NONE', #182, #130, #33 ) ;
#123 = APPLICATION_CONTEXT ( 'configuration controlled 3d designs of mechanical parts and assemblies' ) ;
#124 = EDGE_LOOP ( 'NONE', ( #129 ) ) ;
#125 = ORIENTED_EDGE ( 'NONE', *, *, #78, .F. ) ;
#126 = FACE_BOUND ( 'NONE', #124, .T. ) ;
#127 = PLANE ( 'NONE',  #152 ) ;
#128 = DIRECTION ( 'NONE',  ( 0.0000000000000000000, 1.000000000000000000, 0.0000000000000000000 ) ) ;
#129 = ORIENTED_EDGE ( 'NONE', *, *, #157, .F. ) ;
#130 = DIRECTION ( 'NONE',  ( 3.491481338843133355E-15, -1.224646799147353207E-16, 1.000000000000000000 ) ) ;
#131 = ADVANCED_FACE ( 'NONE', ( #29, #76 ), #210, .T. ) ;
#132 = CARTESIAN_POINT ( 'NONE',  ( 1.040461438975253740E-13, 0.7499999999999963363, 29.80000000000000071 ) ) ;
#133 = SECURITY_CLASSIFICATION_LEVEL ( 'unclassified' ) ;
#134 = FACE_OUTER_BOUND ( 'NONE', #198, .T. ) ;
#135 = DATE_AND_TIME ( #72, #107 ) ;
#136 = COORDINATED_UNIVERSAL_TIME_OFFSET ( 1, 0, .AHEAD. ) ;
#137 = AXIS2_PLACEMENT_3D ( 'NONE', #177, #6, #28 ) ;
#138 = CC_DESIGN_DATE_AND_TIME_ASSIGNMENT ( #14, #1, ( #97 ) ) ;
#139 = ADVANCED_FACE ( 'NONE', ( #67 ), #143, .F. ) ;
#140 = AXIS2_PLACEMENT_3D ( 'NONE', #185, #168, #17 ) ;
#141 = ADVANCED_BREP_SHAPE_REPRESENTATION ( '957901', ( #190, #47, #140 ), #57 ) ;
#142 = EDGE_LOOP ( 'NONE', ( #172 ) ) ;
#143 = PLANE ( 'NONE',  #137 ) ;
#144 = DIRECTION ( 'NONE',  ( -3.491481338843133355E-15, 1.224646799147353207E-16, -1.000000000000000000 ) ) ;
#145 = CARTESIAN_POINT ( 'NONE',  ( 3.576145261858901583E-14, -1.254342905831650550E-15, 10.24248711305964044 ) ) ;
#146 = PRODUCT_RELATED_PRODUCT_CATEGORY ( 'detail', '', ( #192 ) ) ;
#147 = DIRECTION ( 'NONE',  ( 3.491481338843133355E-15, -1.224646799147353207E-16, 1.000000000000000000 ) ) ;
#148 = CYLINDRICAL_SURFACE ( 'NONE', #169, 0.7499999999999987788 ) ;
#149 = VERTEX_POINT ( 'NONE', #166 ) ;
#150 = VERTEX_POINT ( 'NONE', #115 ) ;
#151 = COORDINATED_UNIVERSAL_TIME_OFFSET ( 1, 0, .AHEAD. ) ;
#152 = AXIS2_PLACEMENT_3D ( 'NONE', #27, #214, #65 ) ;
#153 = PERSON_AND_ORGANIZATION ( #191, #178 ) ;
#154 = SHAPE_DEFINITION_REPRESENTATION ( #23, #141 ) ;
#155 = APPROVAL_DATE_TIME ( #135, #195 ) ;
#156 = CC_DESIGN_PERSON_AND_ORGANIZATION_ASSIGNMENT ( #39, #56, ( #161 ) ) ;
#157 = EDGE_CURVE ( 'NONE', #150, #150, #165, .T. ) ;
#158 = CC_DESIGN_SECURITY_CLASSIFICATION ( #97, ( #161 ) ) ;
#159 = ORIENTED_EDGE ( 'NONE', *, *, #78, .T. ) ;
#160 = DIRECTION ( 'NONE',  ( 3.157262203913507572E-31, 1.000000000000000000, 8.886903053159889787E-17 ) ) ;
#161 = PRODUCT_DEFINITION_FORMATION_WITH_SPECIFIED_SOURCE ( 'ANY', '', #192, .NOT_KNOWN. ) ;
#162 = DIRECTION ( 'NONE',  ( -3.491481338843133355E-15, 1.224646799147353207E-16, -1.000000000000000000 ) ) ;
#163 = DIRECTION ( 'NONE',  ( -3.491481338843133355E-15, 1.224646799147353207E-16, -1.000000000000000000 ) ) ;
#164 = FACE_OUTER_BOUND ( 'NONE', #108, .T. ) ;
#165 = CIRCLE ( 'NONE', #16, 0.6100000000000006528 ) ;
#166 = CARTESIAN_POINT ( 'NONE',  ( 3.576145261858901583E-14, 0.7499999999999963363, 10.24248711305964044 ) ) ;
#167 = APPROVAL_ROLE ( '' ) ;
#168 = DIRECTION ( 'NONE',  ( 0.0000000000000000000, 0.0000000000000000000, 1.000000000000000000 ) ) ;
#169 = AXIS2_PLACEMENT_3D ( 'NONE', #44, #197, #50 ) ;
#170 = APPROVAL_STATUS ( 'not_yet_approved' ) ;
#171 = PRODUCT_DEFINITION ( 'UNKNOWN', '', #161, #80 ) ;
#172 = ORIENTED_EDGE ( 'NONE', *, *, #211, .F. ) ;
#173 = ORIENTED_EDGE ( 'NONE', *, *, #32, .F. ) ;
#174 = AXIS2_PLACEMENT_3D ( 'NONE', #82, #181, #5 ) ;
#175 = ORIENTED_EDGE ( 'NONE', *, *, #75, .T. ) ;
#176 = FACE_OUTER_BOUND ( 'NONE', #212, .T. ) ;
#177 = CARTESIAN_POINT ( 'NONE',  ( 3.491481338843133986E-14, -2.078680878889580519E-31, 10.00000000000000178 ) ) ;
#178 = ORGANIZATION ( 'UNSPECIFIED', 'UNSPECIFIED', '' ) ;
#179 = FACE_OUTER_BOUND ( 'NONE', #89, .T. ) ;
#180 = DIRECTION ( 'NONE',  ( -3.491481338843133355E-15, 1.224646799147353207E-16, -1.000000000000000000 ) ) ;
#181 = DIRECTION ( 'NONE',  ( -3.491481338843133355E-15, 1.224646799147353207E-16, -1.000000000000000000 ) ) ;
#182 = CARTESIAN_POINT ( 'NONE',  ( 1.229642691419510932E-15, -4.313005970814662162E-17, 0.3521836642056750399 ) ) ;
#183 = CARTESIAN_POINT ( 'NONE',  ( 1.047444401652940007E-13, 0.5499999999999963807, 30.00000000000000000 ) ) ;
#184 = APPROVAL_STATUS ( 'not_yet_approved' ) ;
#185 = CARTESIAN_POINT ( 'NONE',  ( 0.0000000000000000000, 0.0000000000000000000, 0.0000000000000000000 ) ) ;
#186 = APPLICATION_PROTOCOL_DEFINITION ( 'international standard', 'config_control_design', 1994, #123 ) ;
#187 = CC_DESIGN_DATE_AND_TIME_ASSIGNMENT ( #69, #223, ( #171 ) ) ;
#188 = ADVANCED_FACE ( 'NONE', ( #25 ), #8, .F. ) ;
#189 = CIRCLE ( 'NONE', #90, 0.6099999999999987654 ) ;
#190 = MANIFOLD_SOLID_BREP ( 'Corps-Déplacer/Copier1[1]', #26 ) ;
#191 = PERSON ( 'UNSPECIFIED', 'UNSPECIFIED', 'UNSPECIFIED', ('UNSPECIFIED'), ('UNSPECIFIED'), ('UNSPECIFIED') ) ;
#192 = PRODUCT ( '957901', '957901', '', ( #19 ) ) ;
#193 = APPROVAL_PERSON_ORGANIZATION ( #102, #31, #36 ) ;
#194 = DIRECTION ( 'NONE',  ( 0.0000000000000000000, 1.000000000000000000, 0.0000000000000000000 ) ) ;
#195 = APPROVAL ( #184, 'UNSPECIFIED' ) ;
#196 = ADVANCED_FACE ( 'NONE', ( #179 ), #127, .T. ) ;
#197 = DIRECTION ( 'NONE',  ( -3.491481338843133355E-15, 1.224646799147353207E-16, -1.000000000000000000 ) ) ;
#198 = EDGE_LOOP ( 'NONE', ( #24 ) ) ;
#199 = LOCAL_TIME ( 10, 12, 49.00000000000000000, #100 ) ;
#200 = CARTESIAN_POINT ( 'NONE',  ( 1.040461438975253740E-13, -3.649447461459112464E-15, 29.80000000000000071 ) ) ;
#201 = CARTESIAN_POINT ( 'NONE',  ( 3.491481338843133986E-14, 0.6099999999999994316, 10.00000000000000178 ) ) ;
#202 = CALENDAR_DATE ( 2021, 8, 10 ) ;
#203 = AXIS2_PLACEMENT_3D ( 'NONE', #200, #144, #10 ) ;
#204 = PERSON_AND_ORGANIZATION_ROLE ( 'classification_officer' ) ;
#205 = APPROVAL_DATE_TIME ( #38, #91 ) ;
#206 = PERSON_AND_ORGANIZATION_ROLE ( 'design_owner' ) ;
#207 = LOCAL_TIME ( 10, 12, 49.00000000000000000, #136 ) ;
#208 = AXIS2_PLACEMENT_3D ( 'NONE', #92, #64, #128 ) ;
#209 = ORIENTED_EDGE ( 'NONE', *, *, #75, .F. ) ;
#210 = CYLINDRICAL_SURFACE ( 'NONE', #41, 0.6099999999999996536 ) ;
#211 = EDGE_CURVE ( 'NONE', #52, #52, #62, .T. ) ;
#212 = EDGE_LOOP ( 'NONE', ( #173 ) ) ;
#213 = DIRECTION ( 'NONE',  ( 4.275831445896958607E-31, 1.000000000000000000, 1.224646799147353207E-16 ) ) ;
#214 = DIRECTION ( 'NONE',  ( 3.491481338843133355E-15, -1.224646799147353207E-16, 1.000000000000000000 ) ) ;
#215 = CIRCLE ( 'NONE', #120, 0.6100000000000006528 ) ;
#216 = CARTESIAN_POINT ( 'NONE',  ( 1.229642691419510932E-15, -4.313005970814662162E-17, 0.3521836642056750399 ) ) ;
#217 = VERTEX_POINT ( 'NONE', #201 ) ;
#218 = PERSON_AND_ORGANIZATION ( #191, #178 ) ;
#219 = ADVANCED_FACE ( 'NONE', ( #134 ), #70, .T. ) ;
#220 = CIRCLE ( 'NONE', #203, 0.7500000000000000000 ) ;
#221 =( NAMED_UNIT ( * ) SI_UNIT ( $, .STERADIAN. ) SOLID_ANGLE_UNIT ( ) );
#222 = CALENDAR_DATE ( 2021, 8, 10 ) ;
#223 = DATE_TIME_ROLE ( 'creation_date' ) ;
ENDSEC;
END-ISO-10303-21;
