ISO-10303-21;
HEADER;
FILE_DESCRIPTION (( 'STEP AP203' ),
    '1' );
FILE_NAME ('957899.step',
    '2021-10-08T08:12:47',
    ( '' ),
    ( '' ),
    'SwSTEP 2.0',
    'SolidWorks 2019',
    '' );
FILE_SCHEMA (( 'CONFIG_CONTROL_DESIGN' ));
ENDSEC;

DATA;
#1 = PERSON_AND_ORGANIZATION ( #29, #55 ) ;
#2 = DIRECTION ( 'NONE',  ( 0.0000000000000000000, 1.000000000000000000, 0.0000000000000000000 ) ) ;
#3 = CC_DESIGN_APPROVAL ( #106, ( #6 ) ) ;
#4 = CONICAL_SURFACE ( 'NONE', #72, 0.6049999999999987610, 1.047197551196592746 ) ;
#5 = SECURITY_CLASSIFICATION_LEVEL ( 'unclassified' ) ;
#6 = PRODUCT_DEFINITION_FORMATION_WITH_SPECIFIED_SOURCE ( 'ANY', '', #45, .NOT_KNOWN. ) ;
#7 = APPROVAL_DATE_TIME ( #146, #106 ) ;
#8 = DIRECTION ( 'NONE',  ( 3.491481338843133355E-15, -1.224646799147353207E-16, 1.000000000000000000 ) ) ;
#9 = UNCERTAINTY_MEASURE_WITH_UNIT (LENGTH_MEASURE( 1.000000000000000082E-05 ), #138, 'distance_accuracy_value', 'NONE');
#10 = EDGE_LOOP ( 'NONE', ( #100 ) ) ;
#11 = CARTESIAN_POINT ( 'NONE',  ( 3.491481338843133986E-14, 0.6049999999999987610, 10.00000000000000178 ) ) ;
#12 = FACE_BOUND ( 'NONE', #167, .T. ) ;
#13 = CIRCLE ( 'NONE', #152, 0.5500000000000000444 ) ;
#14 = DIRECTION ( 'NONE',  ( -3.491481338843133355E-15, 1.224646799147353207E-16, -1.000000000000000000 ) ) ;
#15 = COORDINATED_UNIVERSAL_TIME_OFFSET ( 1, 0, .AHEAD. ) ;
#16 = ADVANCED_FACE ( 'NONE', ( #118, #58 ), #56, .T. ) ;
#17 = EDGE_LOOP ( 'NONE', ( #127 ) ) ;
#18 = DIRECTION ( 'NONE',  ( -3.491481338843133355E-15, 1.224646799147353207E-16, -1.000000000000000000 ) ) ;
#19 = DIRECTION ( 'NONE',  ( 3.491481338843133355E-15, -1.224646799147353207E-16, 1.000000000000000000 ) ) ;
#20 = PERSON_AND_ORGANIZATION ( #29, #55 ) ;
#21 = LOCAL_TIME ( 10, 12, 47.00000000000000000, #191 ) ;
#22 = EDGE_LOOP ( 'NONE', ( #145 ) ) ;
#23 = CC_DESIGN_DATE_AND_TIME_ASSIGNMENT ( #64, #62, ( #165 ) ) ;
#24 = EDGE_CURVE ( 'NONE', #103, #103, #185, .T. ) ;
#25 = EDGE_CURVE ( 'NONE', #76, #76, #207, .T. ) ;
#26 = DATE_TIME_ROLE ( 'classification_date' ) ;
#27 = AXIS2_PLACEMENT_3D ( 'NONE', #123, #189, #38 ) ;
#28 = DIRECTION ( 'NONE',  ( 0.0000000000000000000, 1.000000000000000000, 0.0000000000000000000 ) ) ;
#29 = PERSON ( 'UNSPECIFIED', 'UNSPECIFIED', 'UNSPECIFIED', ('UNSPECIFIED'), ('UNSPECIFIED'), ('UNSPECIFIED') ) ;
#30 = CARTESIAN_POINT ( 'NONE',  ( 0.0000000000000000000, 0.0000000000000000000, 0.0000000000000000000 ) ) ;
#31 =( NAMED_UNIT ( * ) SI_UNIT ( $, .STERADIAN. ) SOLID_ANGLE_UNIT ( ) );
#32 = SECURITY_CLASSIFICATION ( '', '', #5 ) ;
#33 = MECHANICAL_CONTEXT ( 'NONE', #37, 'mechanical' ) ;
#34 = CARTESIAN_POINT ( 'NONE',  ( 1.219563652965252584E-15, 0.6049999999999987610, 0.3492969128597269157 ) ) ;
#35 = CARTESIAN_POINT ( 'NONE',  ( 1.047444401652940007E-13, -3.673940397442059178E-15, 30.00000000000000000 ) ) ;
#36 = FACE_OUTER_BOUND ( 'NONE', #204, .T. ) ;
#37 = APPLICATION_CONTEXT ( 'configuration controlled 3d designs of mechanical parts and assemblies' ) ;
#38 = DIRECTION ( 'NONE',  ( 0.0000000000000000000, 1.000000000000000000, 0.0000000000000000000 ) ) ;
#39 = APPROVAL_ROLE ( '' ) ;
#40 = AXIS2_PLACEMENT_3D ( 'NONE', #217, #108, #74 ) ;
#41 = PRODUCT_DEFINITION_SHAPE ( 'NONE', 'NONE',  #165 ) ;
#42 = DATE_AND_TIME ( #99, #21 ) ;
#43 = CC_DESIGN_PERSON_AND_ORGANIZATION_ASSIGNMENT ( #44, #162, ( #6 ) ) ;
#44 = PERSON_AND_ORGANIZATION ( #29, #55 ) ;
#45 = PRODUCT ( '957899', '957899', '', ( #33 ) ) ;
#46 = ORIENTED_EDGE ( 'NONE', *, *, #24, .F. ) ;
#47 = PERSON_AND_ORGANIZATION_ROLE ( 'design_supplier' ) ;
#48 = CIRCLE ( 'NONE', #220, 0.6049999999999987610 ) ;
#49 = EDGE_CURVE ( 'NONE', #199, #199, #13, .T. ) ;
#50 = APPLICATION_CONTEXT ( 'configuration controlled 3d designs of mechanical parts and assemblies' ) ;
#51 = CIRCLE ( 'NONE', #83, 0.7500000000000000000 ) ;
#52 = DIRECTION ( 'NONE',  ( -3.491481338843133355E-15, 1.224646799147353207E-16, -1.000000000000000000 ) ) ;
#53 = ORIENTED_EDGE ( 'NONE', *, *, #24, .T. ) ;
#54 = CARTESIAN_POINT ( 'NONE',  ( 1.047444401652940007E-13, 0.5499999999999963807, 30.00000000000000000 ) ) ;
#55 = ORGANIZATION ( 'UNSPECIFIED', 'UNSPECIFIED', '' ) ;
#56 = CONICAL_SURFACE ( 'NONE', #179, 0.7499999999999976685, 0.5235987755982964842 ) ;
#57 = FACE_OUTER_BOUND ( 'NONE', #22, .T. ) ;
#58 = FACE_OUTER_BOUND ( 'NONE', #193, .T. ) ;
#59 = CARTESIAN_POINT ( 'NONE',  ( 0.0000000000000000000, 0.0000000000000000000, 0.0000000000000000000 ) ) ;
#60 = CARTESIAN_POINT ( 'NONE',  ( 1.219563652965252387E-15, -4.277653462857164386E-17, 0.3492969128597268602 ) ) ;
#61 = DIRECTION ( 'NONE',  ( 0.0000000000000000000, -1.000000000000000000, 0.0000000000000000000 ) ) ;
#62 = DATE_TIME_ROLE ( 'creation_date' ) ;
#63 = ADVANCED_FACE ( 'NONE', ( #57 ), #104, .F. ) ;
#64 = DATE_AND_TIME ( #176, #70 ) ;
#65 = CLOSED_SHELL ( 'NONE', ( #63, #16, #112, #68, #84 ) ) ;
#66 = AXIS2_PLACEMENT_3D ( 'NONE', #181, #8, #121 ) ;
#67 = DIRECTION ( 'NONE',  ( 0.0000000000000000000, 0.0000000000000000000, 1.000000000000000000 ) ) ;
#68 = ADVANCED_FACE ( 'NONE', ( #171, #12 ), #180, .T. ) ;
#69 = EDGE_LOOP ( 'NONE', ( #102 ) ) ;
#70 = LOCAL_TIME ( 10, 12, 47.00000000000000000, #157 ) ;
#71 = ADVANCED_BREP_SHAPE_REPRESENTATION ( '957899', ( #208, #209, #175 ), #128 ) ;
#72 = AXIS2_PLACEMENT_3D ( 'NONE', #60, #87, #168 ) ;
#73 = EDGE_CURVE ( 'NONE', #184, #184, #48, .T. ) ;
#74 = DIRECTION ( 'NONE',  ( 4.275831445896959482E-31, 1.000000000000000000, 1.224646799147353207E-16 ) ) ;
#75 = CC_DESIGN_APPROVAL ( #192, ( #165 ) ) ;
#76 = VERTEX_POINT ( 'NONE', #77 ) ;
#77 = CARTESIAN_POINT ( 'NONE',  ( 3.491481338843133986E-14, 0.6049999999999987610, 10.00000000000000178 ) ) ;
#78 = DIRECTION ( 'NONE',  ( 0.0000000000000000000, 1.000000000000000000, 0.0000000000000000000 ) ) ;
#79 = APPROVAL_STATUS ( 'not_yet_approved' ) ;
#80 = COORDINATED_UNIVERSAL_TIME_OFFSET ( 1, 0, .AHEAD. ) ;
#81 = PERSON_AND_ORGANIZATION ( #29, #55 ) ;
#82 = DESIGN_CONTEXT ( 'detailed design', #50, 'design' ) ;
#83 = AXIS2_PLACEMENT_3D ( 'NONE', #219, #116, #28 ) ;
#84 = ADVANCED_FACE ( 'NONE', ( #155 ), #169, .F. ) ;
#85 = CARTESIAN_POINT ( 'NONE',  ( 1.047444401652940007E-13, 4.124339402320052999E-33, 30.00000000000000000 ) ) ;
#86 = ORIENTED_EDGE ( 'NONE', *, *, #73, .F. ) ;
#87 = DIRECTION ( 'NONE',  ( 3.491481338843133355E-15, -1.224646799147353207E-16, 1.000000000000000000 ) ) ;
#88 = CC_DESIGN_APPROVAL ( #210, ( #32 ) ) ;
#89 = AXIS2_PLACEMENT_3D ( 'NONE', #105, #14, #92 ) ;
#90 = AXIS2_PLACEMENT_3D ( 'NONE', #35, #134, #2 ) ;
#91 = FACE_OUTER_BOUND ( 'NONE', #216, .T. ) ;
#92 = DIRECTION ( 'NONE',  ( 0.0000000000000000000, 1.000000000000000000, 0.0000000000000000000 ) ) ;
#93 = APPROVAL_DATE_TIME ( #174, #192 ) ;
#94 = PLANE ( 'NONE',  #142 ) ;
#95 = EDGE_LOOP ( 'NONE', ( #53 ) ) ;
#96 = APPLICATION_PROTOCOL_DEFINITION ( 'international standard', 'config_control_design', 1994, #37 ) ;
#97 = PERSON_AND_ORGANIZATION_ROLE ( 'creator' ) ;
#98 = VERTEX_POINT ( 'NONE', #158 ) ;
#99 = CALENDAR_DATE ( 2021, 8, 10 ) ;
#100 = ORIENTED_EDGE ( 'NONE', *, *, #213, .F. ) ;
#101 = LOCAL_TIME ( 10, 12, 47.00000000000000000, #110 ) ;
#102 = ORIENTED_EDGE ( 'NONE', *, *, #49, .F. ) ;
#103 = VERTEX_POINT ( 'NONE', #11 ) ;
#104 = PLANE ( 'NONE',  #66 ) ;
#105 = CARTESIAN_POINT ( 'NONE',  ( 3.491481338843133986E-14, -1.224646799147353454E-15, 10.00000000000000178 ) ) ;
#106 = APPROVAL ( #122, 'UNSPECIFIED' ) ;
#107 = PERSON_AND_ORGANIZATION_ROLE ( 'design_owner' ) ;
#108 = DIRECTION ( 'NONE',  ( -3.491481338843133355E-15, 1.224646799147353207E-16, -1.000000000000000000 ) ) ;
#109 = APPROVAL_ROLE ( '' ) ;
#110 = COORDINATED_UNIVERSAL_TIME_OFFSET ( 1, 0, .AHEAD. ) ;
#111 = APPROVAL_DATE_TIME ( #42, #210 ) ;
#112 = ADVANCED_FACE ( 'NONE', ( #188, #36 ), #194, .T. ) ;
#113 = APPROVAL_STATUS ( 'not_yet_approved' ) ;
#114 = DATE_AND_TIME ( #212, #120 ) ;
#115 = EDGE_CURVE ( 'NONE', #223, #223, #148, .T. ) ;
#116 = DIRECTION ( 'NONE',  ( -3.491481338843133355E-15, 1.224646799147353207E-16, -1.000000000000000000 ) ) ;
#117 = FACE_OUTER_BOUND ( 'NONE', #95, .T. ) ;
#118 = FACE_BOUND ( 'NONE', #196, .T. ) ;
#119 = CARTESIAN_POINT ( 'NONE',  ( 1.219563652965252387E-15, -4.277653462857164386E-17, 0.3492969128597268602 ) ) ;
#120 = LOCAL_TIME ( 10, 12, 47.00000000000000000, #80 ) ;
#121 = DIRECTION ( 'NONE',  ( -4.275831445896958607E-31, -1.000000000000000000, -1.224646799147353207E-16 ) ) ;
#122 = APPROVAL_STATUS ( 'not_yet_approved' ) ;
#123 = CARTESIAN_POINT ( 'NONE',  ( 3.491481338843133986E-14, -1.224646799147353454E-15, 10.00000000000000178 ) ) ;
#124 = PRODUCT_RELATED_PRODUCT_CATEGORY ( 'detail', '', ( #45 ) ) ;
#125 = AXIS2_PLACEMENT_3D ( 'NONE', #85, #52, #149 ) ;
#126 = DIRECTION ( 'NONE',  ( 1.000000000000000000, 0.0000000000000000000, 0.0000000000000000000 ) ) ;
#127 = ORIENTED_EDGE ( 'NONE', *, *, #73, .T. ) ;
#128 =( GEOMETRIC_REPRESENTATION_CONTEXT ( 3 ) GLOBAL_UNCERTAINTY_ASSIGNED_CONTEXT ( ( #9 ) ) GLOBAL_UNIT_ASSIGNED_CONTEXT ( ( #138, #202, #31 ) ) REPRESENTATION_CONTEXT ( 'NONE', 'WORKASPACE' ) );
#129 = ORIENTED_EDGE ( 'NONE', *, *, #49, .T. ) ;
#130 = CC_DESIGN_PERSON_AND_ORGANIZATION_ASSIGNMENT ( #20, #97, ( #165 ) ) ;
#131 = ORIENTED_EDGE ( 'NONE', *, *, #115, .T. ) ;
#132 = DIRECTION ( 'NONE',  ( -3.491481338843133355E-15, 1.224646799147353207E-16, -1.000000000000000000 ) ) ;
#133 = ORIENTED_EDGE ( 'NONE', *, *, #115, .F. ) ;
#134 = DIRECTION ( 'NONE',  ( -3.491481338843133355E-15, 1.224646799147353207E-16, -1.000000000000000000 ) ) ;
#135 = DIRECTION ( 'NONE',  ( -3.491481338843133355E-15, 1.224646799147353207E-16, -1.000000000000000000 ) ) ;
#136 = ADVANCED_FACE ( 'NONE', ( #91 ), #94, .T. ) ;
#137 = CARTESIAN_POINT ( 'NONE',  ( 3.579168973395179087E-14, 0.7499999999999963363, 10.25114736709748620 ) ) ;
#138 =( LENGTH_UNIT ( ) NAMED_UNIT ( * ) SI_UNIT ( .MILLI., .METRE. ) );
#139 = FACE_OUTER_BOUND ( 'NONE', #17, .T. ) ;
#140 = PERSON_AND_ORGANIZATION ( #29, #55 ) ;
#141 = APPLICATION_PROTOCOL_DEFINITION ( 'international standard', 'config_control_design', 1994, #50 ) ;
#142 = AXIS2_PLACEMENT_3D ( 'NONE', #200, #151, #153 ) ;
#143 = CC_DESIGN_PERSON_AND_ORGANIZATION_ASSIGNMENT ( #159, #107, ( #45 ) ) ;
#144 = PERSON_AND_ORGANIZATION_ROLE ( 'classification_officer' ) ;
#145 = ORIENTED_EDGE ( 'NONE', *, *, #25, .T. ) ;
#146 = DATE_AND_TIME ( #190, #101 ) ;
#147 = PERSON_AND_ORGANIZATION ( #29, #55 ) ;
#148 = CIRCLE ( 'NONE', #211, 0.7499999999999976685 ) ;
#149 = DIRECTION ( 'NONE',  ( 4.275831445896958607E-31, 1.000000000000000000, 1.224646799147353207E-16 ) ) ;
#150 = ORIENTED_EDGE ( 'NONE', *, *, #25, .F. ) ;
#151 = DIRECTION ( 'NONE',  ( 3.491481338843133355E-15, -1.224646799147353207E-16, 1.000000000000000000 ) ) ;
#152 = AXIS2_PLACEMENT_3D ( 'NONE', #186, #135, #172 ) ;
#153 = DIRECTION ( 'NONE',  ( -4.275831445896958607E-31, -1.000000000000000000, -1.224646799147353207E-16 ) ) ;
#154 = CARTESIAN_POINT ( 'NONE',  ( 3.579168973395179087E-14, -1.255403481070375398E-15, 10.25114736709748620 ) ) ;
#155 = FACE_OUTER_BOUND ( 'NONE', #69, .T. ) ;
#156 = APPROVAL_PERSON_ORGANIZATION ( #1, #192, #109 ) ;
#157 = COORDINATED_UNIVERSAL_TIME_OFFSET ( 1, 0, .AHEAD. ) ;
#158 = CARTESIAN_POINT ( 'NONE',  ( 1.040461438975253740E-13, 0.7499999999999963363, 29.80000000000000071 ) ) ;
#159 = PERSON_AND_ORGANIZATION ( #29, #55 ) ;
#160 = ADVANCED_FACE ( 'NONE', ( #166, #117 ), #182, .T. ) ;
#161 = SHAPE_DEFINITION_REPRESENTATION ( #41, #71 ) ;
#162 = PERSON_AND_ORGANIZATION_ROLE ( 'creator' ) ;
#163 = AXIS2_PLACEMENT_3D ( 'NONE', #30, #132, #221 ) ;
#164 = APPROVAL_ROLE ( '' ) ;
#165 = PRODUCT_DEFINITION ( 'UNKNOWN', '', #6, #82 ) ;
#166 = FACE_OUTER_BOUND ( 'NONE', #198, .T. ) ;
#167 = EDGE_LOOP ( 'NONE', ( #129 ) ) ;
#168 = DIRECTION ( 'NONE',  ( -3.183355279978908794E-31, -1.000000000000000000, -8.960348532938071632E-17 ) ) ;
#169 = PLANE ( 'NONE',  #125 ) ;
#170 = CC_DESIGN_SECURITY_CLASSIFICATION ( #32, ( #6 ) ) ;
#171 = FACE_OUTER_BOUND ( 'NONE', #10, .T. ) ;
#172 = DIRECTION ( 'NONE',  ( 0.0000000000000000000, 1.000000000000000000, 0.0000000000000000000 ) ) ;
#173 = CC_DESIGN_DATE_AND_TIME_ASSIGNMENT ( #114, #26, ( #32 ) ) ;
#174 = DATE_AND_TIME ( #187, #214 ) ;
#175 = AXIS2_PLACEMENT_3D ( 'NONE', #59, #67, #126 ) ;
#176 = CALENDAR_DATE ( 2021, 8, 10 ) ;
#177 = APPROVAL_PERSON_ORGANIZATION ( #178, #210, #164 ) ;
#178 = PERSON_AND_ORGANIZATION ( #29, #55 ) ;
#179 = AXIS2_PLACEMENT_3D ( 'NONE', #183, #19, #61 ) ;
#180 = CONICAL_SURFACE ( 'NONE', #90, 0.5500000000000000444, 0.7853981633974512766 ) ;
#181 = CARTESIAN_POINT ( 'NONE',  ( 3.491481338843133986E-14, -2.079055818835246452E-31, 10.00000000000000178 ) ) ;
#182 = CYLINDRICAL_SURFACE ( 'NONE', #163, 0.6049999999999994271 ) ;
#183 = CARTESIAN_POINT ( 'NONE',  ( 3.579168973395179087E-14, -1.255403481070375398E-15, 10.25114736709748620 ) ) ;
#184 = VERTEX_POINT ( 'NONE', #34 ) ;
#185 = CIRCLE ( 'NONE', #89, 0.6049999999999999822 ) ;
#186 = CARTESIAN_POINT ( 'NONE',  ( 1.047444401652940007E-13, -3.673940397442059178E-15, 30.00000000000000000 ) ) ;
#187 = CALENDAR_DATE ( 2021, 8, 10 ) ;
#188 = FACE_OUTER_BOUND ( 'NONE', #201, .T. ) ;
#189 = DIRECTION ( 'NONE',  ( -3.491481338843133355E-15, 1.224646799147353207E-16, -1.000000000000000000 ) ) ;
#190 = CALENDAR_DATE ( 2021, 8, 10 ) ;
#191 = COORDINATED_UNIVERSAL_TIME_OFFSET ( 1, 0, .AHEAD. ) ;
#192 = APPROVAL ( #79, 'UNSPECIFIED' ) ;
#193 = EDGE_LOOP ( 'NONE', ( #131 ) ) ;
#194 = CYLINDRICAL_SURFACE ( 'NONE', #40, 0.7499999999999987788 ) ;
#195 = CC_DESIGN_PERSON_AND_ORGANIZATION_ASSIGNMENT ( #81, #144, ( #32 ) ) ;
#196 = EDGE_LOOP ( 'NONE', ( #150 ) ) ;
#197 = DIRECTION ( 'NONE',  ( 3.183355279978908794E-31, 1.000000000000000000, 8.960348532938071632E-17 ) ) ;
#198 = EDGE_LOOP ( 'NONE', ( #86 ) ) ;
#199 = VERTEX_POINT ( 'NONE', #54 ) ;
#200 = CARTESIAN_POINT ( 'NONE',  ( 3.491481338843133986E-14, -2.079055818835246452E-31, 10.00000000000000178 ) ) ;
#201 = EDGE_LOOP ( 'NONE', ( #133 ) ) ;
#202 =( NAMED_UNIT ( * ) PLANE_ANGLE_UNIT ( ) SI_UNIT ( $, .RADIAN. ) );
#203 = DIRECTION ( 'NONE',  ( -3.491481338843133355E-15, 1.224646799147353207E-16, -1.000000000000000000 ) ) ;
#204 = EDGE_LOOP ( 'NONE', ( #205 ) ) ;
#205 = ORIENTED_EDGE ( 'NONE', *, *, #213, .T. ) ;
#206 = CC_DESIGN_PERSON_AND_ORGANIZATION_ASSIGNMENT ( #147, #47, ( #6 ) ) ;
#207 = CIRCLE ( 'NONE', #27, 0.6049999999999999822 ) ;
#208 = MANIFOLD_SOLID_BREP ( 'Corps-Déplacer/Copier1[1]', #65 ) ;
#209 = MANIFOLD_SOLID_BREP ( 'Corps-Déplacer/Copier1[2]', #215 ) ;
#210 = APPROVAL ( #113, 'UNSPECIFIED' ) ;
#211 = AXIS2_PLACEMENT_3D ( 'NONE', #154, #18, #78 ) ;
#212 = CALENDAR_DATE ( 2021, 8, 10 ) ;
#213 = EDGE_CURVE ( 'NONE', #98, #98, #51, .T. ) ;
#214 = LOCAL_TIME ( 10, 12, 47.00000000000000000, #15 ) ;
#215 = CLOSED_SHELL ( 'NONE', ( #222, #160, #136 ) ) ;
#216 = EDGE_LOOP ( 'NONE', ( #46 ) ) ;
#217 = CARTESIAN_POINT ( 'NONE',  ( 0.0000000000000000000, 0.0000000000000000000, 0.0000000000000000000 ) ) ;
#218 = APPROVAL_PERSON_ORGANIZATION ( #140, #106, #39 ) ;
#219 = CARTESIAN_POINT ( 'NONE',  ( 1.040461438975253740E-13, -3.649447461459112464E-15, 29.80000000000000071 ) ) ;
#220 = AXIS2_PLACEMENT_3D ( 'NONE', #119, #203, #197 ) ;
#221 = DIRECTION ( 'NONE',  ( 4.275831445896958607E-31, 1.000000000000000000, 1.224646799147352961E-16 ) ) ;
#222 = ADVANCED_FACE ( 'NONE', ( #139 ), #4, .T. ) ;
#223 = VERTEX_POINT ( 'NONE', #137 ) ;
ENDSEC;
END-ISO-10303-21;
