ISO-10303-21;
HEADER;
FILE_DESCRIPTION (( 'STEP AP203' ),
    '1' );
FILE_NAME ('957897.step',
    '2021-10-08T08:12:46',
    ( '' ),
    ( '' ),
    'SwSTEP 2.0',
    'SolidWorks 2019',
    '' );
FILE_SCHEMA (( 'CONFIG_CONTROL_DESIGN' ));
ENDSEC;

DATA;
#1 = CIRCLE ( 'NONE', #148, 0.5899999999999993028 ) ;
#2 = FACE_OUTER_BOUND ( 'NONE', #59, .T. ) ;
#3 = CARTESIAN_POINT ( 'NONE',  ( 1.040461438975253740E-13, -3.649447461459112464E-15, 29.80000000000000071 ) ) ;
#4 =( GEOMETRIC_REPRESENTATION_CONTEXT ( 3 ) GLOBAL_UNCERTAINTY_ASSIGNED_CONTEXT ( ( #173 ) ) GLOBAL_UNIT_ASSIGNED_CONTEXT ( ( #206, #83, #207 ) ) REPRESENTATION_CONTEXT ( 'NONE', 'WORKASPACE' ) );
#5 = DIRECTION ( 'NONE',  ( 0.0000000000000000000, 1.000000000000000000, 0.0000000000000000000 ) ) ;
#6 = PRODUCT_DEFINITION ( 'UNKNOWN', '', #171, #63 ) ;
#7 = PERSON_AND_ORGANIZATION ( #27, #36 ) ;
#8 = FACE_OUTER_BOUND ( 'NONE', #145, .T. ) ;
#9 = APPROVAL_DATE_TIME ( #218, #16 ) ;
#10 = APPROVAL_STATUS ( 'not_yet_approved' ) ;
#11 = ORIENTED_EDGE ( 'NONE', *, *, #24, .T. ) ;
#12 = APPROVAL_ROLE ( '' ) ;
#13 = EDGE_LOOP ( 'NONE', ( #201 ) ) ;
#14 = CARTESIAN_POINT ( 'NONE',  ( 1.189326537602477344E-15, -4.171595938984672289E-17, 0.3406366588218823765 ) ) ;
#15 = APPROVAL_PERSON_ORGANIZATION ( #159, #16, #12 ) ;
#16 = APPROVAL ( #154, 'UNSPECIFIED' ) ;
#17 = FACE_OUTER_BOUND ( 'NONE', #108, .T. ) ;
#18 = DIRECTION ( 'NONE',  ( -3.491481338843133355E-15, 1.224646799147353207E-16, -1.000000000000000000 ) ) ;
#19 = PLANE ( 'NONE',  #89 ) ;
#20 = CARTESIAN_POINT ( 'NONE',  ( 1.047444401652940007E-13, 0.5499999999999963807, 30.00000000000000000 ) ) ;
#21 = CARTESIAN_POINT ( 'NONE',  ( 0.0000000000000000000, 0.0000000000000000000, 0.0000000000000000000 ) ) ;
#22 = ORIENTED_EDGE ( 'NONE', *, *, #208, .F. ) ;
#23 = AXIS2_PLACEMENT_3D ( 'NONE', #3, #52, #67 ) ;
#24 = EDGE_CURVE ( 'NONE', #150, #150, #113, .T. ) ;
#25 = PERSON_AND_ORGANIZATION ( #27, #36 ) ;
#26 = ORIENTED_EDGE ( 'NONE', *, *, #96, .F. ) ;
#27 = PERSON ( 'UNSPECIFIED', 'UNSPECIFIED', 'UNSPECIFIED', ('UNSPECIFIED'), ('UNSPECIFIED'), ('UNSPECIFIED') ) ;
#28 = DATE_AND_TIME ( #69, #99 ) ;
#29 = EDGE_LOOP ( 'NONE', ( #142 ) ) ;
#30 = ADVANCED_FACE ( 'NONE', ( #39, #103 ), #174, .T. ) ;
#31 = AXIS2_PLACEMENT_3D ( 'NONE', #169, #119, #101 ) ;
#32 = PLANE ( 'NONE',  #53 ) ;
#33 = CARTESIAN_POINT ( 'NONE',  ( 3.491481338843133355E-14, 4.424291358852456132E-33, 10.00000000000000000 ) ) ;
#34 = DIRECTION ( 'NONE',  ( -4.275831445896958607E-31, -1.000000000000000000, -1.224646799147353207E-16 ) ) ;
#35 = VERTEX_POINT ( 'NONE', #189 ) ;
#36 = ORGANIZATION ( 'UNSPECIFIED', 'UNSPECIFIED', '' ) ;
#37 = CC_DESIGN_PERSON_AND_ORGANIZATION_ASSIGNMENT ( #84, #62, ( #135 ) ) ;
#38 = DIRECTION ( 'NONE',  ( 1.000000000000000000, 0.0000000000000000000, 0.0000000000000000000 ) ) ;
#39 = FACE_OUTER_BOUND ( 'NONE', #158, .T. ) ;
#40 = PERSON_AND_ORGANIZATION_ROLE ( 'creator' ) ;
#41 = ORIENTED_EDGE ( 'NONE', *, *, #79, .T. ) ;
#42 = COORDINATED_UNIVERSAL_TIME_OFFSET ( 1, 0, .AHEAD. ) ;
#43 = ORIENTED_EDGE ( 'NONE', *, *, #24, .F. ) ;
#44 = ADVANCED_FACE ( 'NONE', ( #155, #8 ), #139, .T. ) ;
#45 = CALENDAR_DATE ( 2021, 8, 10 ) ;
#46 = CONICAL_SURFACE ( 'NONE', #31, 0.7499999999999976685, 0.5235987755982948189 ) ;
#47 = FACE_OUTER_BOUND ( 'NONE', #13, .T. ) ;
#48 = ADVANCED_FACE ( 'NONE', ( #47 ), #32, .T. ) ;
#49 = DIRECTION ( 'NONE',  ( -3.491481338843133355E-15, 1.224646799147353207E-16, -1.000000000000000000 ) ) ;
#50 = CONICAL_SURFACE ( 'NONE', #131, 0.5899999999999987477, 1.047197551196592746 ) ;
#51 = DIRECTION ( 'NONE',  ( 0.0000000000000000000, 1.000000000000000000, 0.0000000000000000000 ) ) ;
#52 = DIRECTION ( 'NONE',  ( -3.491481338843133355E-15, 1.224646799147353207E-16, -1.000000000000000000 ) ) ;
#53 = AXIS2_PLACEMENT_3D ( 'NONE', #33, #91, #34 ) ;
#54 = CLOSED_SHELL ( 'NONE', ( #128, #123, #44, #118, #90 ) ) ;
#55 = VERTEX_POINT ( 'NONE', #66 ) ;
#56 = DIRECTION ( 'NONE',  ( 3.491481338843133355E-15, -1.224646799147353207E-16, 1.000000000000000000 ) ) ;
#57 = PERSON_AND_ORGANIZATION ( #27, #36 ) ;
#58 = SHAPE_DEFINITION_REPRESENTATION ( #161, #221 ) ;
#59 = EDGE_LOOP ( 'NONE', ( #73 ) ) ;
#60 = APPROVAL_STATUS ( 'not_yet_approved' ) ;
#61 = LOCAL_TIME ( 10, 12, 46.00000000000000000, #153 ) ;
#62 = PERSON_AND_ORGANIZATION_ROLE ( 'classification_officer' ) ;
#63 = DESIGN_CONTEXT ( 'detailed design', #70, 'design' ) ;
#64 = DIRECTION ( 'NONE',  ( 0.0000000000000000000, 1.000000000000000000, 0.0000000000000000000 ) ) ;
#65 = CIRCLE ( 'NONE', #120, 0.7499999999999976685 ) ;
#66 = CARTESIAN_POINT ( 'NONE',  ( 1.189326537602477541E-15, 0.5899999999999987477, 0.3406366588218824321 ) ) ;
#67 = DIRECTION ( 'NONE',  ( 0.0000000000000000000, 1.000000000000000000, 0.0000000000000000000 ) ) ;
#68 = LOCAL_TIME ( 10, 12, 46.00000000000000000, #104 ) ;
#69 = CALENDAR_DATE ( 2021, 8, 10 ) ;
#70 = APPLICATION_CONTEXT ( 'configuration controlled 3d designs of mechanical parts and assemblies' ) ;
#71 = PERSON_AND_ORGANIZATION_ROLE ( 'design_supplier' ) ;
#72 = DATE_AND_TIME ( #192, #124 ) ;
#73 = ORIENTED_EDGE ( 'NONE', *, *, #140, .T. ) ;
#74 = PERSON_AND_ORGANIZATION_ROLE ( 'creator' ) ;
#75 = CC_DESIGN_SECURITY_CLASSIFICATION ( #135, ( #171 ) ) ;
#76 = DIRECTION ( 'NONE',  ( -3.491481338843133355E-15, 1.224646799147353207E-16, -1.000000000000000000 ) ) ;
#77 = APPROVAL_PERSON_ORGANIZATION ( #157, #147, #141 ) ;
#78 = PLANE ( 'NONE',  #203 ) ;
#79 = EDGE_CURVE ( 'NONE', #134, #134, #197, .T. ) ;
#80 = CARTESIAN_POINT ( 'NONE',  ( 1.189326537602477344E-15, -4.171595938984672289E-17, 0.3406366588218823765 ) ) ;
#81 = VERTEX_POINT ( 'NONE', #168 ) ;
#82 = EDGE_CURVE ( 'NONE', #55, #55, #129, .T. ) ;
#83 =( NAMED_UNIT ( * ) PLANE_ANGLE_UNIT ( ) SI_UNIT ( $, .RADIAN. ) );
#84 = PERSON_AND_ORGANIZATION ( #27, #36 ) ;
#85 = DIRECTION ( 'NONE',  ( -3.491481338843133355E-15, 1.224646799147353207E-16, -1.000000000000000000 ) ) ;
#86 = APPROVAL_PERSON_ORGANIZATION ( #25, #130, #200 ) ;
#87 = CC_DESIGN_PERSON_AND_ORGANIZATION_ASSIGNMENT ( #195, #74, ( #6 ) ) ;
#88 = PERSON_AND_ORGANIZATION ( #27, #36 ) ;
#89 = AXIS2_PLACEMENT_3D ( 'NONE', #95, #149, #152 ) ;
#90 = ADVANCED_FACE ( 'NONE', ( #17 ), #78, .F. ) ;
#91 = DIRECTION ( 'NONE',  ( 3.491481338843133355E-15, -1.224646799147353207E-16, 1.000000000000000000 ) ) ;
#92 = CONICAL_SURFACE ( 'NONE', #222, 0.5500000000000000444, 0.7853981633974512766 ) ;
#93 = DIRECTION ( 'NONE',  ( -3.491481338843133355E-15, 1.224646799147353207E-16, -1.000000000000000000 ) ) ;
#94 = FACE_OUTER_BOUND ( 'NONE', #110, .T. ) ;
#95 = CARTESIAN_POINT ( 'NONE',  ( 3.491481338843133355E-14, 4.424291358852456132E-33, 10.00000000000000000 ) ) ;
#96 = EDGE_CURVE ( 'NONE', #115, #115, #65, .T. ) ;
#97 = CARTESIAN_POINT ( 'NONE',  ( 3.491481338843133355E-14, -1.224646799147353256E-15, 10.00000000000000000 ) ) ;
#98 = CARTESIAN_POINT ( 'NONE',  ( 3.491481338843133355E-14, 0.5899999999999980815, 10.00000000000000000 ) ) ;
#99 = LOCAL_TIME ( 10, 12, 46.00000000000000000, #138 ) ;
#100 = CC_DESIGN_DATE_AND_TIME_ASSIGNMENT ( #72, #182, ( #6 ) ) ;
#101 = DIRECTION ( 'NONE',  ( 0.0000000000000000000, -1.000000000000000000, 0.0000000000000000000 ) ) ;
#102 = DATE_AND_TIME ( #180, #146 ) ;
#103 = FACE_OUTER_BOUND ( 'NONE', #160, .T. ) ;
#104 = COORDINATED_UNIVERSAL_TIME_OFFSET ( 1, 0, .AHEAD. ) ;
#105 = EDGE_LOOP ( 'NONE', ( #11 ) ) ;
#106 = AXIS2_PLACEMENT_3D ( 'NONE', #183, #76, #64 ) ;
#107 = EDGE_LOOP ( 'NONE', ( #176 ) ) ;
#108 = EDGE_LOOP ( 'NONE', ( #43 ) ) ;
#109 = APPROVAL_DATE_TIME ( #193, #130 ) ;
#110 = EDGE_LOOP ( 'NONE', ( #22 ) ) ;
#111 = DIRECTION ( 'NONE',  ( 4.275831445896959482E-31, 1.000000000000000000, 1.224646799147353207E-16 ) ) ;
#112 = PRODUCT ( '957897', '957897', '', ( #127 ) ) ;
#113 = CIRCLE ( 'NONE', #106, 0.5500000000000000444 ) ;
#114 = FACE_OUTER_BOUND ( 'NONE', #181, .T. ) ;
#115 = VERTEX_POINT ( 'NONE', #209 ) ;
#116 = ADVANCED_FACE ( 'NONE', ( #114 ), #50, .T. ) ;
#117 = FACE_OUTER_BOUND ( 'NONE', #29, .T. ) ;
#118 = ADVANCED_FACE ( 'NONE', ( #94, #187 ), #92, .T. ) ;
#119 = DIRECTION ( 'NONE',  ( 3.491481338843133355E-15, -1.224646799147353207E-16, 1.000000000000000000 ) ) ;
#120 = AXIS2_PLACEMENT_3D ( 'NONE', #205, #18, #51 ) ;
#121 = DIRECTION ( 'NONE',  ( 0.0000000000000000000, 0.0000000000000000000, 1.000000000000000000 ) ) ;
#122 = EDGE_LOOP ( 'NONE', ( #26 ) ) ;
#123 = ADVANCED_FACE ( 'NONE', ( #211, #117 ), #46, .T. ) ;
#124 = LOCAL_TIME ( 10, 12, 46.00000000000000000, #42 ) ;
#125 = APPLICATION_PROTOCOL_DEFINITION ( 'international standard', 'config_control_design', 1994, #70 ) ;
#126 = ORIENTED_EDGE ( 'NONE', *, *, #82, .F. ) ;
#127 = MECHANICAL_CONTEXT ( 'NONE', #204, 'mechanical' ) ;
#128 = ADVANCED_FACE ( 'NONE', ( #2 ), #19, .F. ) ;
#129 = CIRCLE ( 'NONE', #188, 0.5899999999999987477 ) ;
#130 = APPROVAL ( #60, 'UNSPECIFIED' ) ;
#131 = AXIS2_PLACEMENT_3D ( 'NONE', #80, #56, #133 ) ;
#132 = DIRECTION ( 'NONE',  ( -3.491481338843133355E-15, 1.224646799147353207E-16, -1.000000000000000000 ) ) ;
#133 = DIRECTION ( 'NONE',  ( -3.264288041334304959E-31, -1.000000000000000000, -9.188154004114463785E-17 ) ) ;
#134 = VERTEX_POINT ( 'NONE', #98 ) ;
#135 = SECURITY_CLASSIFICATION ( '', '', #198 ) ;
#136 = DATE_TIME_ROLE ( 'classification_date' ) ;
#137 = AXIS2_PLACEMENT_3D ( 'NONE', #214, #202, #111 ) ;
#138 = COORDINATED_UNIVERSAL_TIME_OFFSET ( 1, 0, .AHEAD. ) ;
#139 = CYLINDRICAL_SURFACE ( 'NONE', #137, 0.7499999999999987788 ) ;
#140 = EDGE_CURVE ( 'NONE', #81, #81, #1, .T. ) ;
#141 = APPROVAL_ROLE ( '' ) ;
#142 = ORIENTED_EDGE ( 'NONE', *, *, #96, .T. ) ;
#143 = MANIFOLD_SOLID_BREP ( 'Corps-Déplacer/Copier1[1]', #54 ) ;
#144 = CALENDAR_DATE ( 2021, 8, 10 ) ;
#145 = EDGE_LOOP ( 'NONE', ( #219 ) ) ;
#146 = LOCAL_TIME ( 10, 12, 46.00000000000000000, #175 ) ;
#147 = APPROVAL ( #10, 'UNSPECIFIED' ) ;
#148 = AXIS2_PLACEMENT_3D ( 'NONE', #97, #191, #5 ) ;
#149 = DIRECTION ( 'NONE',  ( 3.491481338843133355E-15, -1.224646799147353207E-16, 1.000000000000000000 ) ) ;
#150 = VERTEX_POINT ( 'NONE', #20 ) ;
#151 = AXIS2_PLACEMENT_3D ( 'NONE', #21, #85, #194 ) ;
#152 = DIRECTION ( 'NONE',  ( -4.275831445896958607E-31, -1.000000000000000000, -1.224646799147353207E-16 ) ) ;
#153 = COORDINATED_UNIVERSAL_TIME_OFFSET ( 1, 0, .AHEAD. ) ;
#154 = APPROVAL_STATUS ( 'not_yet_approved' ) ;
#155 = FACE_OUTER_BOUND ( 'NONE', #122, .T. ) ;
#156 = AXIS2_PLACEMENT_3D ( 'NONE', #162, #49, #185 ) ;
#157 = PERSON_AND_ORGANIZATION ( #27, #36 ) ;
#158 = EDGE_LOOP ( 'NONE', ( #126 ) ) ;
#159 = PERSON_AND_ORGANIZATION ( #27, #36 ) ;
#160 = EDGE_LOOP ( 'NONE', ( #41 ) ) ;
#161 = PRODUCT_DEFINITION_SHAPE ( 'NONE', 'NONE',  #6 ) ;
#162 = CARTESIAN_POINT ( 'NONE',  ( 3.491481338843133355E-14, -1.224646799147353256E-15, 10.00000000000000000 ) ) ;
#163 = CC_DESIGN_APPROVAL ( #16, ( #171 ) ) ;
#164 = DIRECTION ( 'NONE',  ( 3.264288041334304959E-31, 1.000000000000000000, 9.188154004114463785E-17 ) ) ;
#165 = DIRECTION ( 'NONE',  ( 4.275831445896958607E-31, 1.000000000000000000, 1.224646799147353207E-16 ) ) ;
#166 = DIRECTION ( 'NONE',  ( 0.0000000000000000000, 1.000000000000000000, 0.0000000000000000000 ) ) ;
#167 = PRODUCT_RELATED_PRODUCT_CATEGORY ( 'detail', '', ( #112 ) ) ;
#168 = CARTESIAN_POINT ( 'NONE',  ( 3.491481338843133355E-14, 0.5899999999999980815, 10.00000000000000000 ) ) ;
#169 = CARTESIAN_POINT ( 'NONE',  ( 3.588240108004011600E-14, -1.258585206786550136E-15, 10.27712812921101992 ) ) ;
#170 = CARTESIAN_POINT ( 'NONE',  ( 1.047444401652940007E-13, -3.673940397442059178E-15, 30.00000000000000000 ) ) ;
#171 = PRODUCT_DEFINITION_FORMATION_WITH_SPECIFIED_SOURCE ( 'ANY', '', #112, .NOT_KNOWN. ) ;
#172 = APPLICATION_PROTOCOL_DEFINITION ( 'international standard', 'config_control_design', 1994, #204 ) ;
#173 = UNCERTAINTY_MEASURE_WITH_UNIT (LENGTH_MEASURE( 1.000000000000000082E-05 ), #206, 'distance_accuracy_value', 'NONE');
#174 = CYLINDRICAL_SURFACE ( 'NONE', #151, 0.5899999999999989697 ) ;
#175 = COORDINATED_UNIVERSAL_TIME_OFFSET ( 1, 0, .AHEAD. ) ;
#176 = ORIENTED_EDGE ( 'NONE', *, *, #140, .F. ) ;
#177 = CC_DESIGN_DATE_AND_TIME_ASSIGNMENT ( #28, #136, ( #135 ) ) ;
#178 = CC_DESIGN_APPROVAL ( #147, ( #135 ) ) ;
#179 = CLOSED_SHELL ( 'NONE', ( #116, #30, #48 ) ) ;
#180 = CALENDAR_DATE ( 2021, 8, 10 ) ;
#181 = EDGE_LOOP ( 'NONE', ( #199 ) ) ;
#182 = DATE_TIME_ROLE ( 'creation_date' ) ;
#183 = CARTESIAN_POINT ( 'NONE',  ( 1.047444401652940007E-13, -3.673940397442059178E-15, 30.00000000000000000 ) ) ;
#184 = CIRCLE ( 'NONE', #23, 0.7500000000000000000 ) ;
#185 = DIRECTION ( 'NONE',  ( 0.0000000000000000000, 1.000000000000000000, 0.0000000000000000000 ) ) ;
#186 = CARTESIAN_POINT ( 'NONE',  ( 1.047444401652940007E-13, 4.124339402320052999E-33, 30.00000000000000000 ) ) ;
#187 = FACE_BOUND ( 'NONE', #105, .T. ) ;
#188 = AXIS2_PLACEMENT_3D ( 'NONE', #14, #93, #164 ) ;
#189 = CARTESIAN_POINT ( 'NONE',  ( 1.040461438975253740E-13, 0.7499999999999963363, 29.80000000000000071 ) ) ;
#190 = DIRECTION ( 'NONE',  ( -3.491481338843133355E-15, 1.224646799147353207E-16, -1.000000000000000000 ) ) ;
#191 = DIRECTION ( 'NONE',  ( -3.491481338843133355E-15, 1.224646799147353207E-16, -1.000000000000000000 ) ) ;
#192 = CALENDAR_DATE ( 2021, 8, 10 ) ;
#193 = DATE_AND_TIME ( #45, #68 ) ;
#194 = DIRECTION ( 'NONE',  ( 4.275831445896958607E-31, 1.000000000000000000, 1.224646799147352961E-16 ) ) ;
#195 = PERSON_AND_ORGANIZATION ( #27, #36 ) ;
#196 = CC_DESIGN_PERSON_AND_ORGANIZATION_ASSIGNMENT ( #57, #40, ( #171 ) ) ;
#197 = CIRCLE ( 'NONE', #156, 0.5899999999999993028 ) ;
#198 = SECURITY_CLASSIFICATION_LEVEL ( 'unclassified' ) ;
#199 = ORIENTED_EDGE ( 'NONE', *, *, #82, .T. ) ;
#200 = APPROVAL_ROLE ( '' ) ;
#201 = ORIENTED_EDGE ( 'NONE', *, *, #79, .F. ) ;
#202 = DIRECTION ( 'NONE',  ( -3.491481338843133355E-15, 1.224646799147353207E-16, -1.000000000000000000 ) ) ;
#203 = AXIS2_PLACEMENT_3D ( 'NONE', #186, #132, #165 ) ;
#204 = APPLICATION_CONTEXT ( 'configuration controlled 3d designs of mechanical parts and assemblies' ) ;
#205 = CARTESIAN_POINT ( 'NONE',  ( 3.588240108004011600E-14, -1.258585206786550136E-15, 10.27712812921101992 ) ) ;
#206 =( LENGTH_UNIT ( ) NAMED_UNIT ( * ) SI_UNIT ( .MILLI., .METRE. ) );
#207 =( NAMED_UNIT ( * ) SI_UNIT ( $, .STERADIAN. ) SOLID_ANGLE_UNIT ( ) );
#208 = EDGE_CURVE ( 'NONE', #35, #35, #184, .T. ) ;
#209 = CARTESIAN_POINT ( 'NONE',  ( 3.588240108004011600E-14, 0.7499999999999963363, 10.27712812921101992 ) ) ;
#210 = CC_DESIGN_PERSON_AND_ORGANIZATION_ASSIGNMENT ( #88, #71, ( #171 ) ) ;
#211 = FACE_BOUND ( 'NONE', #107, .T. ) ;
#212 = CARTESIAN_POINT ( 'NONE',  ( 0.0000000000000000000, 0.0000000000000000000, 0.0000000000000000000 ) ) ;
#213 = APPROVAL_DATE_TIME ( #102, #147 ) ;
#214 = CARTESIAN_POINT ( 'NONE',  ( 0.0000000000000000000, 0.0000000000000000000, 0.0000000000000000000 ) ) ;
#215 = PERSON_AND_ORGANIZATION_ROLE ( 'design_owner' ) ;
#216 = CC_DESIGN_PERSON_AND_ORGANIZATION_ASSIGNMENT ( #7, #215, ( #112 ) ) ;
#217 = AXIS2_PLACEMENT_3D ( 'NONE', #212, #121, #38 ) ;
#218 = DATE_AND_TIME ( #144, #61 ) ;
#219 = ORIENTED_EDGE ( 'NONE', *, *, #208, .T. ) ;
#220 = MANIFOLD_SOLID_BREP ( 'Corps-Déplacer/Copier1[2]', #179 ) ;
#221 = ADVANCED_BREP_SHAPE_REPRESENTATION ( '957897', ( #143, #220, #217 ), #4 ) ;
#222 = AXIS2_PLACEMENT_3D ( 'NONE', #170, #190, #166 ) ;
#223 = CC_DESIGN_APPROVAL ( #130, ( #6 ) ) ;
ENDSEC;
END-ISO-10303-21;
