ISO-10303-21;
HEADER;
FILE_DESCRIPTION (( 'STEP AP203' ),
    '1' );
FILE_NAME ('957895.step',
    '2021-10-08T08:12:43',
    ( '' ),
    ( '' ),
    'SwSTEP 2.0',
    'SolidWorks 2019',
    '' );
FILE_SCHEMA (( 'CONFIG_CONTROL_DESIGN' ));
ENDSEC;

DATA;
#1 = DIRECTION ( 'NONE',  ( -4.275831445896958607E-31, -1.000000000000000000, -1.224646799147353207E-16 ) ) ;
#2 = CARTESIAN_POINT ( 'NONE',  ( 1.047444401652940007E-13, -3.673940397442059178E-15, 30.00000000000000000 ) ) ;
#3 = AXIS2_PLACEMENT_3D ( 'NONE', #2, #91, #207 ) ;
#4 = PERSON_AND_ORGANIZATION ( #206, #125 ) ;
#5 = DIRECTION ( 'NONE',  ( -3.491481338843133355E-15, 1.224646799147353207E-16, -1.000000000000000000 ) ) ;
#6 = EDGE_LOOP ( 'NONE', ( #80 ) ) ;
#7 = ORIENTED_EDGE ( 'NONE', *, *, #177, .F. ) ;
#8 = FACE_BOUND ( 'NONE', #44, .T. ) ;
#9 = ORIENTED_EDGE ( 'NONE', *, *, #12, .T. ) ;
#10 = CIRCLE ( 'NONE', #185, 0.5850000000000007416 ) ;
#11 = DIRECTION ( 'NONE',  ( -3.491481338843133355E-15, 1.224646799147353207E-16, -1.000000000000000000 ) ) ;
#12 = EDGE_CURVE ( 'NONE', #55, #55, #114, .T. ) ;
#13 = ORIENTED_EDGE ( 'NONE', *, *, #32, .F. ) ;
#14 = APPROVAL ( #109, 'UNSPECIFIED' ) ;
#15 = CARTESIAN_POINT ( 'NONE',  ( 3.491481338843133355E-14, -1.224646799147353256E-15, 10.00000000000000000 ) ) ;
#16 = APPLICATION_PROTOCOL_DEFINITION ( 'international standard', 'config_control_design', 1994, #168 ) ;
#17 = ADVANCED_FACE ( 'NONE', ( #8, #181 ), #194, .T. ) ;
#18 = CARTESIAN_POINT ( 'NONE',  ( 1.179247499148219785E-15, 0.5849999999999988542, 0.3377499074759343078 ) ) ;
#19 = CARTESIAN_POINT ( 'NONE',  ( 0.0000000000000000000, 0.0000000000000000000, 0.0000000000000000000 ) ) ;
#20 =( LENGTH_UNIT ( ) NAMED_UNIT ( * ) SI_UNIT ( .MILLI., .METRE. ) );
#21 = DATE_AND_TIME ( #171, #26 ) ;
#22 = SECURITY_CLASSIFICATION_LEVEL ( 'unclassified' ) ;
#23 = ORIENTED_EDGE ( 'NONE', *, *, #32, .T. ) ;
#24 = PERSON_AND_ORGANIZATION_ROLE ( 'classification_officer' ) ;
#25 = DATE_AND_TIME ( #196, #169 ) ;
#26 = LOCAL_TIME ( 10, 12, 43.00000000000000000, #123 ) ;
#27 = ORIENTED_EDGE ( 'NONE', *, *, #12, .F. ) ;
#28 = CARTESIAN_POINT ( 'NONE',  ( 3.491481338843133355E-14, 4.386797364285922418E-33, 10.00000000000000000 ) ) ;
#29 = CC_DESIGN_PERSON_AND_ORGANIZATION_ASSIGNMENT ( #215, #24, ( #152 ) ) ;
#30 = DIRECTION ( 'NONE',  ( 4.275831445896958607E-31, 1.000000000000000000, 1.224646799147353207E-16 ) ) ;
#31 = VERTEX_POINT ( 'NONE', #131 ) ;
#32 = EDGE_CURVE ( 'NONE', #36, #36, #189, .T. ) ;
#33 = LOCAL_TIME ( 10, 12, 43.00000000000000000, #191 ) ;
#34 = DIRECTION ( 'NONE',  ( 1.000000000000000000, 0.0000000000000000000, 0.0000000000000000000 ) ) ;
#35 = CYLINDRICAL_SURFACE ( 'NONE', #68, 0.5849999999999998535 ) ;
#36 = VERTEX_POINT ( 'NONE', #107 ) ;
#37 = CC_DESIGN_PERSON_AND_ORGANIZATION_ASSIGNMENT ( #174, #118, ( #48 ) ) ;
#38 = DIRECTION ( 'NONE',  ( 3.491481338843133355E-15, -1.224646799147353207E-16, 1.000000000000000000 ) ) ;
#39 = CALENDAR_DATE ( 2021, 8, 10 ) ;
#40 = APPROVAL ( #140, 'UNSPECIFIED' ) ;
#41 = ADVANCED_FACE ( 'NONE', ( #63 ), #112, .T. ) ;
#42 = APPROVAL_DATE_TIME ( #25, #40 ) ;
#43 = AXIS2_PLACEMENT_3D ( 'NONE', #87, #52, #187 ) ;
#44 = EDGE_LOOP ( 'NONE', ( #97 ) ) ;
#45 =( GEOMETRIC_REPRESENTATION_CONTEXT ( 3 ) GLOBAL_UNCERTAINTY_ASSIGNED_CONTEXT ( ( #60 ) ) GLOBAL_UNIT_ASSIGNED_CONTEXT ( ( #20, #88, #183 ) ) REPRESENTATION_CONTEXT ( 'NONE', 'WORKASPACE' ) );
#46 = DIRECTION ( 'NONE',  ( -3.292187939123486349E-31, -1.000000000000000000, -9.266685234918858931E-17 ) ) ;
#47 = EDGE_LOOP ( 'NONE', ( #23 ) ) ;
#48 = PRODUCT_DEFINITION_FORMATION_WITH_SPECIFIED_SOURCE ( 'ANY', '', #190, .NOT_KNOWN. ) ;
#49 = DIRECTION ( 'NONE',  ( 3.491481338843133355E-15, -1.224646799147353207E-16, 1.000000000000000000 ) ) ;
#50 = PERSON_AND_ORGANIZATION ( #206, #125 ) ;
#51 = PRODUCT_DEFINITION_SHAPE ( 'NONE', 'NONE',  #161 ) ;
#52 = DIRECTION ( 'NONE',  ( -3.491481338843133355E-15, 1.224646799147353207E-16, -1.000000000000000000 ) ) ;
#53 = CIRCLE ( 'NONE', #113, 0.7500000000000000000 ) ;
#54 = AXIS2_PLACEMENT_3D ( 'NONE', #147, #202, #110 ) ;
#55 = VERTEX_POINT ( 'NONE', #18 ) ;
#56 = CC_DESIGN_DATE_AND_TIME_ASSIGNMENT ( #211, #78, ( #161 ) ) ;
#57 = FACE_OUTER_BOUND ( 'NONE', #145, .T. ) ;
#58 = APPROVAL_DATE_TIME ( #74, #14 ) ;
#59 = APPROVAL_DATE_TIME ( #21, #149 ) ;
#60 = UNCERTAINTY_MEASURE_WITH_UNIT (LENGTH_MEASURE( 1.000000000000000082E-05 ), #20, 'distance_accuracy_value', 'NONE');
#61 = APPROVAL_ROLE ( '' ) ;
#62 = CALENDAR_DATE ( 2021, 8, 10 ) ;
#63 = FACE_OUTER_BOUND ( 'NONE', #6, .T. ) ;
#64 = MANIFOLD_SOLID_BREP ( 'Corps-Déplacer/Copier1[2]', #108 ) ;
#65 = APPROVAL_PERSON_ORGANIZATION ( #159, #14, #61 ) ;
#66 = FACE_OUTER_BOUND ( 'NONE', #95, .T. ) ;
#67 = CARTESIAN_POINT ( 'NONE',  ( 1.047444401652940007E-13, 4.124339402320052999E-33, 30.00000000000000000 ) ) ;
#68 = AXIS2_PLACEMENT_3D ( 'NONE', #132, #135, #104 ) ;
#69 = CYLINDRICAL_SURFACE ( 'NONE', #43, 0.7499999999999987788 ) ;
#70 = VERTEX_POINT ( 'NONE', #153 ) ;
#71 = CC_DESIGN_APPROVAL ( #149, ( #161 ) ) ;
#72 = FACE_OUTER_BOUND ( 'NONE', #162, .T. ) ;
#73 = MECHANICAL_CONTEXT ( 'NONE', #168, 'mechanical' ) ;
#74 = DATE_AND_TIME ( #39, #105 ) ;
#75 = EDGE_CURVE ( 'NONE', #89, #89, #172, .T. ) ;
#76 = PERSON_AND_ORGANIZATION_ROLE ( 'creator' ) ;
#77 = ADVANCED_FACE ( 'NONE', ( #115 ), #148, .F. ) ;
#78 = DATE_TIME_ROLE ( 'creation_date' ) ;
#79 = CC_DESIGN_APPROVAL ( #40, ( #152 ) ) ;
#80 = ORIENTED_EDGE ( 'NONE', *, *, #90, .F. ) ;
#81 = APPLICATION_CONTEXT ( 'configuration controlled 3d designs of mechanical parts and assemblies' ) ;
#82 = AXIS2_PLACEMENT_3D ( 'NONE', #28, #98, #180 ) ;
#83 = PRODUCT_RELATED_PRODUCT_CATEGORY ( 'detail', '', ( #190 ) ) ;
#84 = DIRECTION ( 'NONE',  ( 0.0000000000000000000, 1.000000000000000000, 0.0000000000000000000 ) ) ;
#85 = EDGE_LOOP ( 'NONE', ( #7 ) ) ;
#86 = CARTESIAN_POINT ( 'NONE',  ( 3.491481338843133355E-14, -1.224646799147353256E-15, 10.00000000000000000 ) ) ;
#87 = CARTESIAN_POINT ( 'NONE',  ( 0.0000000000000000000, 0.0000000000000000000, 0.0000000000000000000 ) ) ;
#88 =( NAMED_UNIT ( * ) PLANE_ANGLE_UNIT ( ) SI_UNIT ( $, .RADIAN. ) );
#89 = VERTEX_POINT ( 'NONE', #170 ) ;
#90 = EDGE_CURVE ( 'NONE', #31, #31, #10, .T. ) ;
#91 = DIRECTION ( 'NONE',  ( -3.491481338843133355E-15, 1.224646799147353207E-16, -1.000000000000000000 ) ) ;
#92 = CIRCLE ( 'NONE', #138, 0.5850000000000007416 ) ;
#93 = DATE_TIME_ROLE ( 'classification_date' ) ;
#94 = EDGE_LOOP ( 'NONE', ( #173 ) ) ;
#95 = EDGE_LOOP ( 'NONE', ( #9 ) ) ;
#96 = CC_DESIGN_PERSON_AND_ORGANIZATION_ASSIGNMENT ( #197, #76, ( #161 ) ) ;
#97 = ORIENTED_EDGE ( 'NONE', *, *, #102, .F. ) ;
#98 = DIRECTION ( 'NONE',  ( 3.491481338843133355E-15, -1.224646799147353207E-16, 1.000000000000000000 ) ) ;
#99 = CARTESIAN_POINT ( 'NONE',  ( 1.047444401652940007E-13, -3.673940397442059178E-15, 30.00000000000000000 ) ) ;
#100 = AXIS2_PLACEMENT_3D ( 'NONE', #126, #200, #46 ) ;
#101 = EDGE_LOOP ( 'NONE', ( #198 ) ) ;
#102 = EDGE_CURVE ( 'NONE', #70, #70, #92, .T. ) ;
#103 = CARTESIAN_POINT ( 'NONE',  ( 1.040461438975253740E-13, -3.649447461459112464E-15, 29.80000000000000071 ) ) ;
#104 = DIRECTION ( 'NONE',  ( 4.275831445896958607E-31, 1.000000000000000000, 1.224646799147353207E-16 ) ) ;
#105 = LOCAL_TIME ( 10, 12, 43.00000000000000000, #213 ) ;
#106 = ADVANCED_BREP_SHAPE_REPRESENTATION ( '957895', ( #130, #64, #199 ), #45 ) ;
#107 = CARTESIAN_POINT ( 'NONE',  ( 3.591263819540289105E-14, 0.7499999999999963363, 10.28578838324886391 ) ) ;
#108 = CLOSED_SHELL ( 'NONE', ( #139, #156, #41 ) ) ;
#109 = APPROVAL_STATUS ( 'not_yet_approved' ) ;
#110 = DIRECTION ( 'NONE',  ( 3.292187939123486349E-31, 1.000000000000000000, 9.266685234918858931E-17 ) ) ;
#111 = DIRECTION ( 'NONE',  ( 0.0000000000000000000, 1.000000000000000000, 0.0000000000000000000 ) ) ;
#112 = PLANE ( 'NONE',  #82 ) ;
#113 = AXIS2_PLACEMENT_3D ( 'NONE', #103, #5, #167 ) ;
#114 = CIRCLE ( 'NONE', #54, 0.5849999999999988542 ) ;
#115 = FACE_OUTER_BOUND ( 'NONE', #101, .T. ) ;
#116 = PERSON_AND_ORGANIZATION_ROLE ( 'design_owner' ) ;
#117 = CARTESIAN_POINT ( 'NONE',  ( 1.040461438975253740E-13, 0.7499999999999963363, 29.80000000000000071 ) ) ;
#118 = PERSON_AND_ORGANIZATION_ROLE ( 'design_supplier' ) ;
#119 = PERSON_AND_ORGANIZATION_ROLE ( 'creator' ) ;
#120 = COORDINATED_UNIVERSAL_TIME_OFFSET ( 1, 0, .AHEAD. ) ;
#121 = APPROVAL_PERSON_ORGANIZATION ( #50, #149, #193 ) ;
#122 = DATE_AND_TIME ( #192, #221 ) ;
#123 = COORDINATED_UNIVERSAL_TIME_OFFSET ( 1, 0, .AHEAD. ) ;
#124 = DIRECTION ( 'NONE',  ( -3.491481338843133355E-15, 1.224646799147353207E-16, -1.000000000000000000 ) ) ;
#125 = ORGANIZATION ( 'UNSPECIFIED', 'UNSPECIFIED', '' ) ;
#126 = CARTESIAN_POINT ( 'NONE',  ( 1.179247499148219588E-15, -4.136243431027176362E-17, 0.3377499074759342523 ) ) ;
#127 = CARTESIAN_POINT ( 'NONE',  ( 3.591263819540289105E-14, -1.259645782025274983E-15, 10.28578838324886391 ) ) ;
#128 = DIRECTION ( 'NONE',  ( 0.0000000000000000000, -1.000000000000000000, 0.0000000000000000000 ) ) ;
#129 = CONICAL_SURFACE ( 'NONE', #100, 0.5849999999999988542, 1.047197551196592746 ) ;
#130 = MANIFOLD_SOLID_BREP ( 'Corps-Déplacer/Copier1[1]', #186 ) ;
#131 = CARTESIAN_POINT ( 'NONE',  ( 3.491481338843133355E-14, 0.5849999999999996314, 10.00000000000000000 ) ) ;
#132 = CARTESIAN_POINT ( 'NONE',  ( 0.0000000000000000000, 0.0000000000000000000, 0.0000000000000000000 ) ) ;
#133 = FACE_OUTER_BOUND ( 'NONE', #85, .T. ) ;
#134 = CONICAL_SURFACE ( 'NONE', #3, 0.5500000000000000444, 0.7853981633974512766 ) ;
#135 = DIRECTION ( 'NONE',  ( -3.491481338843133355E-15, 1.224646799147353207E-16, -1.000000000000000000 ) ) ;
#136 = FACE_BOUND ( 'NONE', #204, .T. ) ;
#137 = COORDINATED_UNIVERSAL_TIME_OFFSET ( 1, 0, .AHEAD. ) ;
#138 = AXIS2_PLACEMENT_3D ( 'NONE', #86, #124, #220 ) ;
#139 = ADVANCED_FACE ( 'NONE', ( #66 ), #129, .T. ) ;
#140 = APPROVAL_STATUS ( 'not_yet_approved' ) ;
#141 = ADVANCED_FACE ( 'NONE', ( #222 ), #178, .F. ) ;
#142 = PERSON_AND_ORGANIZATION ( #206, #125 ) ;
#143 = CC_DESIGN_APPROVAL ( #14, ( #48 ) ) ;
#144 = PERSON_AND_ORGANIZATION ( #206, #125 ) ;
#145 = EDGE_LOOP ( 'NONE', ( #27 ) ) ;
#146 = DIRECTION ( 'NONE',  ( -3.491481338843133355E-15, 1.224646799147353207E-16, -1.000000000000000000 ) ) ;
#147 = CARTESIAN_POINT ( 'NONE',  ( 1.179247499148219588E-15, -4.136243431027176362E-17, 0.3377499074759342523 ) ) ;
#148 = PLANE ( 'NONE',  #208 ) ;
#149 = APPROVAL ( #154, 'UNSPECIFIED' ) ;
#150 = DIRECTION ( 'NONE',  ( -3.491481338843133355E-15, 1.224646799147353207E-16, -1.000000000000000000 ) ) ;
#151 = EDGE_LOOP ( 'NONE', ( #13 ) ) ;
#152 = SECURITY_CLASSIFICATION ( '', '', #22 ) ;
#153 = CARTESIAN_POINT ( 'NONE',  ( 3.491481338843133355E-14, 0.5849999999999996314, 10.00000000000000000 ) ) ;
#154 = APPROVAL_STATUS ( 'not_yet_approved' ) ;
#155 = APPROVAL_PERSON_ORGANIZATION ( #142, #40, #163 ) ;
#156 = ADVANCED_FACE ( 'NONE', ( #57, #184 ), #35, .T. ) ;
#157 = DIRECTION ( 'NONE',  ( 0.0000000000000000000, 0.0000000000000000000, 1.000000000000000000 ) ) ;
#158 = CC_DESIGN_PERSON_AND_ORGANIZATION_ASSIGNMENT ( #144, #119, ( #48 ) ) ;
#159 = PERSON_AND_ORGANIZATION ( #206, #125 ) ;
#160 = AXIS2_PLACEMENT_3D ( 'NONE', #127, #150, #223 ) ;
#161 = PRODUCT_DEFINITION ( 'UNKNOWN', '', #48, #179 ) ;
#162 = EDGE_LOOP ( 'NONE', ( #218 ) ) ;
#163 = APPROVAL_ROLE ( '' ) ;
#164 = DIRECTION ( 'NONE',  ( -3.491481338843133355E-15, 1.224646799147353207E-16, -1.000000000000000000 ) ) ;
#165 = EDGE_LOOP ( 'NONE', ( #216 ) ) ;
#166 = ADVANCED_FACE ( 'NONE', ( #133, #136 ), #134, .T. ) ;
#167 = DIRECTION ( 'NONE',  ( 0.0000000000000000000, 1.000000000000000000, 0.0000000000000000000 ) ) ;
#168 = APPLICATION_CONTEXT ( 'configuration controlled 3d designs of mechanical parts and assemblies' ) ;
#169 = LOCAL_TIME ( 10, 12, 43.00000000000000000, #137 ) ;
#170 = CARTESIAN_POINT ( 'NONE',  ( 1.047444401652940007E-13, 0.5499999999999963807, 30.00000000000000000 ) ) ;
#171 = CALENDAR_DATE ( 2021, 8, 10 ) ;
#172 = CIRCLE ( 'NONE', #195, 0.5500000000000000444 ) ;
#173 = ORIENTED_EDGE ( 'NONE', *, *, #102, .T. ) ;
#174 = PERSON_AND_ORGANIZATION ( #206, #125 ) ;
#175 = AXIS2_PLACEMENT_3D ( 'NONE', #188, #38, #1 ) ;
#176 = CARTESIAN_POINT ( 'NONE',  ( 3.591263819540289105E-14, -1.259645782025274983E-15, 10.28578838324886391 ) ) ;
#177 = EDGE_CURVE ( 'NONE', #209, #209, #53, .T. ) ;
#178 = PLANE ( 'NONE',  #175 ) ;
#179 = DESIGN_CONTEXT ( 'detailed design', #81, 'design' ) ;
#180 = DIRECTION ( 'NONE',  ( -4.275831445896958607E-31, -1.000000000000000000, -1.224646799147353207E-16 ) ) ;
#181 = FACE_OUTER_BOUND ( 'NONE', #47, .T. ) ;
#182 = ORIENTED_EDGE ( 'NONE', *, *, #75, .T. ) ;
#183 =( NAMED_UNIT ( * ) SI_UNIT ( $, .STERADIAN. ) SOLID_ANGLE_UNIT ( ) );
#184 = FACE_OUTER_BOUND ( 'NONE', #165, .T. ) ;
#185 = AXIS2_PLACEMENT_3D ( 'NONE', #15, #146, #111 ) ;
#186 = CLOSED_SHELL ( 'NONE', ( #141, #17, #219, #166, #77 ) ) ;
#187 = DIRECTION ( 'NONE',  ( 4.275831445896959482E-31, 1.000000000000000000, 1.224646799147353207E-16 ) ) ;
#188 = CARTESIAN_POINT ( 'NONE',  ( 3.491481338843133355E-14, 4.386797364285922418E-33, 10.00000000000000000 ) ) ;
#189 = CIRCLE ( 'NONE', #160, 0.7499999999999976685 ) ;
#190 = PRODUCT ( '957895', '957895', '', ( #73 ) ) ;
#191 = COORDINATED_UNIVERSAL_TIME_OFFSET ( 1, 0, .AHEAD. ) ;
#192 = CALENDAR_DATE ( 2021, 8, 10 ) ;
#193 = APPROVAL_ROLE ( '' ) ;
#194 = CONICAL_SURFACE ( 'NONE', #214, 0.7499999999999976685, 0.5235987755982923764 ) ;
#195 = AXIS2_PLACEMENT_3D ( 'NONE', #99, #11, #84 ) ;
#196 = CALENDAR_DATE ( 2021, 8, 10 ) ;
#197 = PERSON_AND_ORGANIZATION ( #206, #125 ) ;
#198 = ORIENTED_EDGE ( 'NONE', *, *, #75, .F. ) ;
#199 = AXIS2_PLACEMENT_3D ( 'NONE', #19, #157, #34 ) ;
#200 = DIRECTION ( 'NONE',  ( 3.491481338843133355E-15, -1.224646799147353207E-16, 1.000000000000000000 ) ) ;
#201 = CC_DESIGN_PERSON_AND_ORGANIZATION_ASSIGNMENT ( #4, #116, ( #190 ) ) ;
#202 = DIRECTION ( 'NONE',  ( -3.491481338843133355E-15, 1.224646799147353207E-16, -1.000000000000000000 ) ) ;
#203 = CC_DESIGN_SECURITY_CLASSIFICATION ( #152, ( #48 ) ) ;
#204 = EDGE_LOOP ( 'NONE', ( #182 ) ) ;
#205 = APPLICATION_PROTOCOL_DEFINITION ( 'international standard', 'config_control_design', 1994, #81 ) ;
#206 = PERSON ( 'UNSPECIFIED', 'UNSPECIFIED', 'UNSPECIFIED', ('UNSPECIFIED'), ('UNSPECIFIED'), ('UNSPECIFIED') ) ;
#207 = DIRECTION ( 'NONE',  ( 0.0000000000000000000, 1.000000000000000000, 0.0000000000000000000 ) ) ;
#208 = AXIS2_PLACEMENT_3D ( 'NONE', #67, #164, #30 ) ;
#209 = VERTEX_POINT ( 'NONE', #117 ) ;
#210 = FACE_OUTER_BOUND ( 'NONE', #151, .T. ) ;
#211 = DATE_AND_TIME ( #62, #33 ) ;
#212 = SHAPE_DEFINITION_REPRESENTATION ( #51, #106 ) ;
#213 = COORDINATED_UNIVERSAL_TIME_OFFSET ( 1, 0, .AHEAD. ) ;
#214 = AXIS2_PLACEMENT_3D ( 'NONE', #176, #49, #128 ) ;
#215 = PERSON_AND_ORGANIZATION ( #206, #125 ) ;
#216 = ORIENTED_EDGE ( 'NONE', *, *, #90, .T. ) ;
#217 = CC_DESIGN_DATE_AND_TIME_ASSIGNMENT ( #122, #93, ( #152 ) ) ;
#218 = ORIENTED_EDGE ( 'NONE', *, *, #177, .T. ) ;
#219 = ADVANCED_FACE ( 'NONE', ( #210, #72 ), #69, .T. ) ;
#220 = DIRECTION ( 'NONE',  ( 0.0000000000000000000, 1.000000000000000000, 0.0000000000000000000 ) ) ;
#221 = LOCAL_TIME ( 10, 12, 43.00000000000000000, #120 ) ;
#222 = FACE_OUTER_BOUND ( 'NONE', #94, .T. ) ;
#223 = DIRECTION ( 'NONE',  ( 0.0000000000000000000, 1.000000000000000000, 0.0000000000000000000 ) ) ;
ENDSEC;
END-ISO-10303-21;
